7 Seconds - Racism Sucks Chords & Tabs

 

Racism Sucks Chords & Tabs

7 Seconds Chords & Tabs

Version: 1 Type: Tab 0 ratings
1 star 2 stars 3 stars 4 stars 5 stars
comments

Racism Sucks Tab

Key: *=Play multiple times 
^=Bend 
/=Slide 


^Intro Riff^ x4 
e|-----------| 
B|-----------| 
G|------11*--| 
D|--11*-11---| 
A|--11--9----| 
E|--9--------| 

^Verse^ x2 
e|-------------------------------------------| 
B|-------------------------------------------| 
G|-------11*------11*------7*------777--999--| 
D|--11*--11--11*--11---7*--7---7*--777--999--| 
A|--11---9---11---9----7---5---7---555--777--| 
E|--9--------9---------5-------5-------------| 

^Riff1^ (Just repeat this a couple times) 
e|-----------------------| 
B|-----------------------| 
G|-----------------------| 
D|--11*--10/11*--10/11*--| 
A|--11---10/11---10/11---| 
E|--9----8-/-9----8/-9---| 
[ Tab from: http://www.guitartabs.cc/tabs/0-9/7_seconds/racism_sucks_tab.html ]
Then play ^Verse^ x2 and ^Riff1^ x1 

^Chorus^ !Palm Muted! 
e|-------| 
B|-------| 
G|-------| 
D|--11*--| 
A|--11---| 
E|--9----| 

^Solo^ (Just mess around with these riffs, may not be right, close enough) 
e|----1212---1212---1212---1212--2*-7*-2*-777-999--| 
B|----1212---1212---1212---1212--2--7--2--777-999--| 
G|--15^----15^----15^----15^-----------------------| 
D|-------------------------------------------------| 
A|-------------------------------------------------| 
E|-------------------------------------------------| 

Then play ^Verse^ x2 and ^Riff1^ x1 and ^Chorus^ x1 then ^Intro Riff^ a bunch of times. 

Tabbed 12.25.02 by Brian Siklinski (nwodafometsys245@netscape.net)
Send corrections to ghostcow@gmail.com
Comments