7 Seconds - In Your Face Chords & Tabs

 

In Your Face Chords & Tabs

7 Seconds Chords & Tabs

Version: 1 Type: Tab

In Your Face Tab

Song: In Your Face
Artist: 7 seconds
Album: walk together, rock together
tabber: Rodrigo V. (osopunkore at gmail.com)

VERSE (YOU WANNA BE THE WAY I AM...)

Eb -------------------------------|
Bb -------------------------------|
Db -------------------------------|
Gb -------------------------------|
Ab --77777--99999--77777--99999---|
Eb --55555--77777--55555--77777---|


Eb ---------------------------------------------------------------|
Bb ---------------------------------------------------------------|
Db ---------------------------------------------------------------|
Gb -12-12-12----------------------12-12-12------------------------|
Ab -10-10-10-12-12-12-9-9-9-9-9-9-10-10-10-12-12-12-9-9-9-9-9-9---|
Eb ----------10-10-10-7-7-7-7-7-7----------10-10-10-7-7-7-7-7-7---|
                      . . . . . .

Eb -------------------------------|
Bb -------------------------------|
Db -------------------------------|
Gb -------------------------------|
Ab --77777--99999--77777--99999---|
Eb --55555--77777--55555--77777---|


Eb ---------------------------------------------------------------|
Bb ---------------------------------------------------------------|
Db ---------------------------------------------------------------|
Gb -12-12-12----------------------12-12-12------------------------|
Ab -10-10-10-12-12-12-9-9-9-9-9-9-10-10-10-12-12-12-9-9-9-9-9-9---|
Eb ----------10-10-10-7-7-7-7-7-7----------10-10-10-7-7-7-7-7-7---|
                      . . . . . .

CHORUS (SO... USE YOUR...)

Eb ---------------------------------------------------------------|
Bb ---------------------------------------------------------------|
Db ---------------------------------------------------------------|
Gb --6-------------6-------------6-------------6------------------|
Ab --6-------------6-------------6-------------6------------------|
Eb --4--0-0-0-0-0--4--0-0-0-0-0--4--0-0-0-0-0--4--0-0-0-0-0-------|
        . . . . .     . . . . .     . . . . .     . . . . .

Eb ---------------------------------------------------------------|
Bb ---------------------------------------------------------------|
Db ---------------------------------------------------------------|
Gb --6-------------6-------------6-------------6------------------|
Ab --6-------------6-------------6-------------6------------------|
Eb --4--0-0-0-0-0--4--0-0-0-0-0--4--0-0-0-0-0--4--0-0-0-0-0-------|
        . . . . .     . . . . .     . . . . .     . . . . .

VERSE (THE WAY YOU LOOK IT FITS...)
[ Tab from: http://www.guitartabs.cc/tabs/0-9/7_seconds/in_your_face_tab.html ]
Eb -------------------------------|
Bb -------------------------------|
Db -------------------------------|
Gb -------------------------------|
Ab --77777--99999--77777--99999---|
Eb --55555--77777--55555--77777---|


Eb ----------------------------------------------------------------|
Bb ----------------------------------------------------------------|
Db ----------------------------------------------------------------|
Gb -12-12-12-----------------------12-12-12------------------------|
Ab -10-10-10-12-12-12-9-9-9-9-9-9--10-10-10-12-12-12-9-9-9-9-9-9---|
Eb ----------10-10-10-7-7-7-7-7-7-----------10-10-10-7-7-7-7-7-7---|
                      . . . . . .

(THIS GOES AFTER "ITS NOT JUST IN MY HEAD ITS IN MY HEART" AND ONLY THIS TIME)
Eb -------------------------------|
Bb --9h10p9-----------------------|
Db ---------10p9------------------|
Gb -------------------------------|
Ab -------------------------------|
Eb -------------------------------|


Eb -------------------------------|
Bb -------------------------------|
Db -------------------------------|
Gb -------------------------------|
Ab --77777--99999--77777--99999---|
Eb --55555--77777--55555--77777---|

Eb ---------------------------------------------------------------|
Bb ---------------------------------------------------------------|
Db ---------------------------------------------------------------|
Gb -12-12-12----------------------12-12-12------------------------|
Ab -10-10-10-12-12-12-9-9-9-9-9-9-10-10-10-12-12-12-9-9-9-9-9-9---|
Eb ----------10-10-10-7-7-7-7-7-7----------10-10-10-7-7-7-7-7-7---|
                      . . . . . .

CHORUS (SO... USE YOUR...)

Eb ---------------------------------------------------------------|
Bb ---------------------------------------------------------------|
Db ---------------------------------------------------------------|
Gb --6-------------6-------------6-------------6------------------|
Ab --6-------------6-------------6-------------6------------------|
Eb --4--0-0-0-0-0--4--0-0-0-0-0--4--0-0-0-0-0--4--0-0-0-0-0-------|
        . . . . .     . . . . .     . . . . .     . . . . .
Eb ---------------------------------------------------------------|
Bb ---------------------------------------------------------------|
Db ---------------------------------------------------------------|
Gb --6-------------6-------------6-------------6------------------|
Ab --6-------------6-------------6-------------6------------------|
Eb --4--0-0-0-0-0--4--0-0-0-0-0--4--0-0-0-0-0--4--0-0-0-0-0-------|
        . . . . .     . . . . .     . . . . .     . . . . .

OUTRO

Eb -------------------------------|
Bb -------------------------------|
Db -------------------------------|
Gb -------------------------------|
Ab --77777--99999--77777--9---9---|
Eb --55555--77777--55555--7---7---|