7 Seconds - Heres Your Warning Chords & Tabs

 

Heres Your Warning Chords & Tabs

7 Seconds Chords & Tabs

Version: 2 Type: Tab 0 ratings
1 star 2 stars 3 stars 4 stars 5 stars
comments

Heres Your Warning Tab

song: heres your warning
by: 7 seconds

chorus
E-----------------------|
B-----------------------|
G-----------------------|
D--6--------------------|
A--4-6666666-2222-6666--|
E----4444444-0000-4444--|
[ Tab from: http://www.guitartabs.cc/tabs/0-9/7_seconds/heres_your_warning_tab_ver_2.html ]
verse
E---------------------------------------------------------|
B---------------------------------------------------------|
G---------------------------------------------------------|
D-------7777-11111111-9999------77-1111-------------------|
A--9999-5555--9-9-9-9-7777-9999-55--9-9-1111111111111111--|
E--7777--------------------7777----------9-9-9-9-9-9-9-9--|

bridge
E---------------------------------------|
B---------------------------------------|
G---------------------------------------|
D--------------------7-777777-9-999999--|
A--2-222222-4-444444-5-555555-7-777777--|
E--0-000000-2-222222--------------------|

end
E--------------------------|
B--------------------------|
G--------------------------|
D--------------------------|
A--2222-6666-2222-6666--2--|
E--0000-4444-0000-4444--0--|

timing:
chorus..2x
verse...2x
chorus..4x
verse...2x
chorus..4x
bridge..4x
chorus..4x
end.....1x
Comments