7 Circles - All Songs Chords & Tabs

 

All Songs Chords & Tabs

7 Circles Chords & Tabs

Version: 1 Type: Tab 0 ratings
1 star 2 stars 3 stars 4 stars 5 stars
comments

All Songs Tab

   
 =========================RYTHM GUITAR TABS==============================


=========================a place in mind========================

Intro Repeat 2x
e----0-------0---x----------
a----2---3---2---5----------
d----2---2---2---4-7-5-4---
g----0---0---0---0-----------
b----3---3-------------------
e----0---0-------------------

Verse Repeat 4x
e-------00000000-333--222---------------555--33-2---
a-------22222222-555--444---5555555---777--55-4---
d-------22222222-555--444---4444444---777--55-4---
g--------------------------------7777777-----------------
b----------------------------------------------------------
e----------------------------------------------------------
Strokes  ddududdu ddu  ddu      ddududdu   ddu dd    u



Chorus Repeat 2x
e-0-0xxx0-0-------------
a-2-2xxx2-2-3-3-3-3-3-3-
d-2-2xxx2-2-5-4-5-7-5/4-
g--------------------------
b--------------------------
e--------------------------
   d ddudd d d d d d d d

Repeat Verse and Chorus


Slow Part Repeat 2x
e-0----0---------
a-2--3-2-5-------
d-2--5-2-7-------
g-0--5-0-7-7-5-4-
b-0----0---------
e-0----0---------

Heavy Part
e---00000--00000--00000--00000----------------------------
a---22222--22222--22222--22222--3333333333333333----
d---22222--22222--22222--22222--5555444455557777----
g---------------------------------------------------------------
b--------------------------------------------------------------
e---------------------------------------------------------------

Repeat Verse and Chorus
End


==========================Lonner Halucination====================


Intro  Repeat 4x
e-22222-
a-44444-
d-44444-
g-------
b-------
e-------


Verse Repaet 8x
e--000--44---44---44---000--44-----44-
a-----------66---77--------------66/99---
d------------------------------------------
g-------------------------------------------
b-------------------------------------------
e-------------------------------------------


Chorus Repeat 2x
e---7----7----4----6---7----7----4----5-
a---7----9----6----6---7----9----6----7-
d---9----9----6----8---9----9----6----7-
g---9----0---------8---9----0----------7-
b------------------------------------------
e------------------------------------------


Bridge
e---444-222-777-9--9--9--555-----
a---666-444-999-11-11-11-777----   
d-------------------------------------
g-------------------------------------
b-------------------------------------
e-------------------------------------

Repeat Verse, Chorus,Bridge, Intro and Last Verse








=========================Mood Swing===========================
Intro Repeat 4x
e-000--000--000---000-------------000--000--000---000--------------
a-222--222--222---222---6-5-3-5--222--222--222---222---6-5-3-5-
d-222--222--222---222--5----------222--222--222---222--5----------
g-xxx--xxx--xxx---xxx----------------xxx--xxx---xxx----xxx------------------
b---4----4----4-------------------------4----4----4--------------------------
e---0----0----0-------------------------0----0----0--------------------------


Verse Repeat 4x
e----00000---00000---00000---55555--
a----77777---55555---44444---44554--
d----00000---44444---00000---00000--
b--------------00000---00000------------
g-------------------------------------------
e-------------------------------------------


Bridge Repeat 4x
e---5--5--4---0---
a---7--7--6-3-2---
d---7--7--6-5-2---
g-----------5------
e------------------


Chorus Repeat 4x
e-000--000--000---000-----------000--000--000---000----------------
a-222--222--222---222---6-5-3-5-222--222--222---222---6-5-3-5---
d-222--222--222---222--5--------222--222--222---222--5------------
g-xxx--xxx--xxx---xxx-----------xxx--xxx--xxx---xxx--------------------
b---4----4----4-------------------4----4----4----------------------------
e---0----0----0-------------------0----0----0----------------------------

Repeat Verse, Bridge,  Chorus

Breakdown (Slow Part) Repeat 2x
e---00--00------------00--00-----------
a-----7----788877-------7---788875---
d----------------------------------------
g----------------------------------------
b----------------------------------------
e-----------------------------------------

Breakdown (Heavy Part) Repeat 4x
e---00000000-------00000000------00000000----------------
a---22222222--7^--22222222--8^--22222222--7^-8-7-0-5--
d---------------------------------------------------------------
g---------------------------------------------------------------
b---------------------------------------------------------------
e---------------------------------------------------------------
     dudududud          dudududud          dududud
Ending Repeat 8x
e---00000000----00000000----00000000----00000000-----
a---22222222----22222222----22222222----22222222-----
d---22222222----22222222----22222222----22222222-----
g---------------------------------------------------------------
b------------4^-------------4^------------4^ -----------4^---
e------------0---------------0-------------0-------------0-----
End


============================Torture========================

Intro
e---0-------0-------0-------0--------
a---2---3---2---3---2---3---2---3---
d---2---2---2---2---2---2---2---2---
g-------0-------0-------0-------0----
b-------0-------0-------0-------0----
e-------1-------1-------1-------0----



Verse Repeat 4x
e------------------------------
a---77777777---3-33--2/5---
d---xxxxxxxx---x-xx--x/x-----
g---99999999---5-55--4/7---
b------------------------------
e------------------------------


Chorus Repeat 4x
e---00xxx00xxx00xxx333--
a---22xxx00xxx00xxx555--
d---22xxx00xxx00xxx555--
g----------------------------
b----------------------------
e----------------------------

Bridge repeat 4x
e---00000000-1-----3----
a---22222222-3---3-5----
d---22222222-3---5-5----
g----------------5---------
b-----------------(0)------
e--------------------------

Repeat Verse, Chorus, Bridge, Intro, Verse, Bridge
End



===========================The View=================


Intro
Bass Starts
d---000---000---000---000---
a---000---000---000---000---
d---000---000---000---000---
g---------------------------
b---------------------------
e---------------------------


Verse  Repeat 4x
d---------------------------------------------------------
a---4-4-4-4-5-5-5-5-7-5--44-4-4-4-5-5-5-5-7-5-44---
d----6-6-6-6-7-7-7-7-------6-6-6-6-7-7-7-7-----------
g---------------------------------------------------------
b---------------------------------------------------------
e------------------------------------------------


Chorus Repeat 4x
d---606060(stop)6060607(stop)--
a---606060(stop)6060607(stop)--
d---606060(stop)6060607(stop)--
g-----------------------------------
b-----------------------------------
e-----------------------------------

Repeat Intro, Verse, Chorus

2nd Intro Repeat 4x
d---000--------000----------
a---000--------000----------
d---000--------000----------
g-----12-12------12-12------
b-------9---9------9----10---
e-----------------------------

Repeat Verse, Chorus, Intro
End






========================Ireversible============================

Intro Repeat 4x
d-----------------------------------------------------
a-----------------------------------------------------
d-----------------------------------------------------
g---0-------0-----------0--11------11---------11---
b----12------12------12-----12------12-----12-----
e-------10------10-10----------10------10-12------


Verse
d---00xxx00xxxx00---0------00xxx00xxxx00/--0/0------
a---44xxx04xxxx44---5------99xxx49xxxx99/--4/10-----
d----------------------------------------------------------
g----------------------------------------------------------
b----------------------------------------------------------
e----------------------------------------------------------


Chorus Repeat 2x
d---000000000000---44444444--------0000-0--0---0--0--0----44444444--
a---554577554577---44444444--------5545-10-9--12-10-9----44444444--
d----------------------44444444----------------------------------44444444--
g---777777777777------77-------------7777-12-11-14-12-11-----77--------
b----------------------66--66-77----------------------------------66--66-77--
e--------------------------------------------------------------------------------

Repeat Verse, Chorus, Intro and Last verse
End


============================Ska Song============================

[ Tab from: http://www.guitartabs.cc/tabs/0-9/7_circles/all_songs_tab.html ]
Intro repeat 4x
d--------------------------------------------------
a--------------------------10-10-10-10-10-10-10-10-10-10-----
d---9---9---9---9---9-----9--9--9--9---9---9---9--9--9--9-----
g---11--11-12--12--11---11-11-11-11-11-11--11-11-11-11---
b---8----8--8---8---8-----8--8--8--8---8--8----8--8---8--8----
e----------------------------------------------------------------
      d    u     u     u     u        d   u   u     u   u    d     u    u   u     u
Chorus Repeat 4x
d-------------------5555-------------------
a---22xx333-232--5555---555-3-5-3-----
d---44xx555-454--5555---777-5-7-5-----
g---44xx555-454----------777-5-7-5-----
b-------------------------------------------
e--------------------------------------------


Verse Repeat 4x
d--------------------------55555555
a-----------2222--33-22--55555555
d-----------4444--55-44--55555555
g-----------4444--55-44-------------
b--------------------------------------
e--------------------------------------
Strokes     dduu   uu   uu    duuuduuu


Repeat Verse, Chorus

Slow Part Repeat  8x
d------------------------
a---2-2------3-3--------
d----4-5-4-2-0-4-2-0---
g-------------------------
b-------------------------
e-------------------------

Heavey Part Repeat  8x
d--------22--------352---
a---2-2--22--3-3--352---
d---4-4--22--5-5--352---
g---4-4-------5-5---------
b--------------------------
e--------------------------

Slow Part is ending
End

=======================They Have Evil Minds=====================

Intro into verse                                                                          Verse
d-------------------------------------------------!--0000000044444444333333336666666---
a-------------------------------------------------!--0000000044444444333333336666666---
d-----00000000444444443333333366666666-!--0000000044444444333333336666666---
g-------------------------------------------------!-----------------------------------------------
b-------------------------------------------------!------------------------------------------------
e-------------------------------------------------!------------------------------------------------

Chorus  Repeat 4x
d---5^^^^---7^^^^----
a---0---------0---------
d-----------------------
g------------------------
b------------------------
e------------------------

Repeat Verse, Chorus

Breakdown Bass Starts and goes into this Repeat Part 2  8x
d----4-6----4-6-0---4-6---4-6-0----------!-------12/0-00-4-3--33-3-4-6---(7)-----
a----4-6----4-6-0---4-6---4-6-0----------!-------12/0-00-4-3--33-3-4-6---(7)-----
d----4-6----4-6-0---4-6---4-6-0----------!-------12/0-00-4-3--33-3-4-6---(7)-----
g-------------------------------------------!-----------------------------------(7)----
b-------------------------------------------------------------------------------(7)----
e-------------------------------------------------------------------------------(7)----
                                                                                                                    ^Harmonic^

Repeat Verse
End


=====================Nothing==========================
Intro 
d----0-00----------------0-00---------------0-00---------------0-00---------------------
a----0-00----------------0-00---------------0-00---------------0-00---------------------
d----0-0078-7/5/3-3/5--0-0078-7/5/3-3/7--0-0078-7/5/3-3/5--0-0078-7/5/3-3/12^----
g------------------------------------------------------------------------------------------
b------------------------------------------------------------------------------------------
e------------------------------------------------------------------------------------------

Verse Repeat 2x
d----0-----------------0----------------0----------------0----------------------
a----0-----------------0----------------0----------------0----------------------
d----0-78-7/5/3-3/5--0-78-7/5/3-3/7--0-78-7/5/3-3/5--0--78-7/5/3-3/12^----
g---------------------------------------------------------------------------------
b---------------------------------------------------------------------------------
e---------------------------------------------------------------------------------

Chorus
d---7-7-7-7--7-7-7-7--7-7-7-7--7-7-7-7--5-5-5-5-5-5-5-5-5-5---
a---7-7-7-7--7-7-7-7--7-7-7-7--7-7-7-7--5-5-5-5-5-5-5-5-5-5---
d---7-7-7-7--7-7-7-7--7-7-7-7--7-7-7-7--5-5-5-5-5-5-5-5-5-5---
g---8-8-8-8--9-9-9-9--8-8-8-8--9-9-8-8--7-7-7-7-7-7-7-7-7-7---
b----------------------------------------------------------------------
e----------------------------------------------------------------------
     d u d u      d u d u     d u d u     d u d u     d u d u d u d u d u d u

Breakdown Part 1
d---00-----00-----777--555--8888--777--555--333--22--333--0---
a---00-----00-----777--555--8888--777--555--333--22--333--0---
d---00-----00-----777--555--8888--777--555--333--22--333--0---
g---00-----00----------------------------------------------------------
b-----------------------------------------------------------------------
e-----------------------------------------------------------------------

Breakdown Part 2
d---3-2-0--3-2-0-3-2-0---3-0-5--3-2-0-3-2-0-3-2-0---3-0-5---7-7-7--5-5-5--8-8-8-8--7-7-7--5-5-5--3-3-3--2-2--3-3-3--0---
a---3-2-0--3-2-0-3-2-0---3-0-5--3-2-0-3-2-0-3-2-0---3-0-5---7-7-7--5-5-5--8-8-8-8--7-7-7--5-5-5--3-3-3--2-2--3-3-3--0---
d---3-2-0--3-2-0-3-2-0---3-0-5--3-2-0-3-2-0-3-2-0---3-0-5---7-7-7--5-5-5--8-8-8-8--7-7-7--5-5-5--3-3-3--2-2--3-3-3--0---
g---------------------------------------------------------------------------------------------------------------------------------------
b---------------------------------------------------------------------------------------------------------------------------------------
e----------------------------------------------------------------------------------------------------------------------------------------

Repeat Verse. Chorus, and Breakdown 
End


=================Rush===================

4 Count Intro Part 1
d---10-10-12-0-10--10-10-10-12-0-10-10--10-10-12-0-10--10-10-10-12-0-10-10/1-
a---10-10-12-0-10--10-10-10-12-0-10-10--10-10-12-0-10--10-10-10-12-0-10-10/1-
d---10-10-12-0-10--10-10-10-12-0-10-10--10-10-12-0-10--10-10-10-12-0-10-10/1-
g-------------------------------------------------------------------------------------------
b-------------------------------------------------------------------------------------------
e-------------------------------------------------------------------------------------------

Part 2
d---1-00000000-1-0-1-0-333---1-00000000-1-0-1-0-333---
a---1-00000000-1-0-1-0-333---1-00000000-1-0-1-0-333---
d---1-00000000-1-0-1-0-333---1-00000000-1-0-1-0-333---
g----------------------------------------------------------------
b----------------------------------------------------------------
e----------------------------------------------------------------

Part 3 repeat 2x
d-----------------------------55--55--55--55---
a---33333333--33333333---55--55--55--55---
d---22223333--22225533---55--55--55--55---
g--------------------------------6^--8^--6^--8^-
b--------------------------------------------------
e--------------------------------------------------


Repeat Part 1, 2, and 3

Break down  and ending Repeat 4 times
d---0----------------------------1-00-00-1-00-00-1-00-00-1-00-00-(5)---
a---0----------------------------1-00-00-1-00-00-1-00-00-1-00-00-(5)---
d---0----------------------------1-00-00-1-00-00-1-00-00-1-00-00-(5)---
g-----------------------------------------------------------------------(5)---
b-----------------------------------------------------------------------(5)---
e-----------------------------------------------------------------------(5)---

End

======================The Son====================

Intro
d---6^-7^-6^-7^-10^-6^-7^-6^-7^-3^----
a---0--0---0--0---0---0--0---0--0--0------
d--------------------------------------------
g--------------------------------------------
b--------------------------------------------
e--------------------------------------------

Verse repeat 4x
d---66-77-66-77-10-10-10-66-77-66-77-333----
a---66-77-66-77-10-10-10-66-77-66-77-333----
d---66-77-66-77-10-10-10-66-77-66-77-333----
g----------------------------------------------------
b----------------------------------------------------
e-----------------------------------------------------

Chorus
d---00-0-0-3333/77666-6-6-6/10-10-10------00-0-0-3333/77666-6-6-6-3332320------
a---00-0-0-3333/77666-6-6-6/10-10-10------00-0-0-3333/77666-6-6-6-3332320------
d---00-0-0-3333/77666-6-6-6/10-10-10------00-0-0-3333/77666-6-6-6-3332320------
g--------------------------------------------------------------------------------------------
b--------------------------------------------------------------------------------------------
e--------------------------------------------------------------------------------------------

Breakdown Repeat 2x
d---000-777-6-666-11-11---000-777-6-666-33---
a---000-777-6-666-11-11---000-777-6-666-33---
d---000-777-6-666-11-11---000-777-6-666-33---
g-----------------------------------------------------
b-----------------------------------------------------
e-----------------------------------------------------

Repeat Verse, Chorus, breakdown, Intro, Verse
End
Comments