6gig - Hit The Ground Chords & Tabs

 

Hit The Ground Chords & Tabs

6gig Chords & Tabs

Version: 1 Type: Tab 0 ratings
1 star 2 stars 3 stars 4 stars 5 stars
comments

Hit The Ground Tab

6Gig - Hit The Ground.
 Tabbed by Barry Hassan, baz@fincarn.fsnet.co.uk.
  
======================
6GIG - HIT THE GROUND
======================

Tabbed by Barry Hassan
Comments to baz@fincarn.fsnet.co.uk

Notes: This is the first tab for 6Gig i've seen anyway and i think their 
tuning is in dropped D style down to B and get heavy gauge strings to avoid elastic strings so its:

6th -- B
5th -- F#
4th -- B
3rd -- E
2nd -- G#
1st -- C#

------
Intro
------

These guys use alot of effects which are totally cool so i dont think its sounds right without them:

They also have two guitarists but this tab is for one guitar only:

1|---------------------------
2|-------------------13------
3|-------------------12------  x4
4|---------------------------
5|---------------------------
6|-0-0-x-x-x-x-0-0-----------

Then the cool bit:

1|----------------------------------
2|-------6------8-------11-----13--- 
3|-------5------7-------10-----12--- x2
4|-------x------x-------x------x----
5|-------3------5-------8------10---
6|--0-0-----0-0-----0-0----0-0------

-------
Verses
-------

Not alot of guitar in the verses just this with effects

1|------------------
2|---13--13--13--13-  
3|---12--12--12--12- <---- I Think the effect Steve uses on this note is some sort of warble
4|------------------
5|------------------
6|------------------

-------
Chorus     (yeah!)
-------

1|------------------------------------------------------------------------------------------------------|
2|------------------------------------------------------------------------------------------------------|
3|----------------10-10-10-10-10-10--5-5-5-5---7-7-7-7---------12--12--12--12----5-5-5-5-----7-7-7-7----|
4|----10--9--8-8--8--8--8--8--8--8---3-3-3-3---5-5-5-5---8/10--10--10--10--10----3-3-3-3-----5-5-5-5----|
5|----10--9--8-8--8--8--8--8--8--8---3-3-3-3---5-5-5-5---8/10--10--10--10--10----3-3-3-3-----5-5-5-5----|
6|----10--9--8-8--8--8--8--8--8--8---3-3-3-3---5-5-5-5---8/10--10--10--10--10----3-3-3-3-----5-5-5-5----|

                   I'm only stopping the heavy breathing,      I'm only stopping  to hit the ground
[ Tab from: http://www.guitartabs.cc/tabs/0-9/6gig/hit_the_ground_tab.html ]
        1|---------------------------------------------------------------------------------------------------|
        2|---------------------------------------------------------------------------------------------------|
        3|----10-10-10-10---5-5-5-5-----7-7-7-7----10/12--12--12--12--12--------5----5----5----5-------------|
        4|----8--8--8--8----3-3-3-3-----5-5-5-5----8/10---10--10--10--10------0h3--0h3--0h3--0h3-------------|
        5|----8--8--8--8----3-3-3-3-----5-5-5-5----8/10---10--10--10--10------0h3--0h3--0h3--0h3-------------|
        6|----8--8--8--8----3-3-3-3-----5-5-5-5----8/10---10--10--10--10------0h3--0h3--0h3--0h3-------------|
              I'm only stopping to regain feeling,        I'm only stopping                        To Hit The Ground

Then back to:
1|----------------------------------
2|-------6------8-------11-----13--- 
3|-------5------7-------10-----12--- x2
4|-------x------x-------x------x----
5|-------3------5-------8------10---
6|--0-0-----0-0-----0-0----0-0------

LISTEN TO THE ORDER OF THE SONG FOR ALL THE PARTS THEN AT THE END ITS:

1|---------------------------------              1|-----------------------
2|---------------------------------              2|-----------------------
3|---------------------------------  x4          3|-----------------------
4|-0h3--0h3------------------------              4|---3-3-3--2--1--0------
5|-0h3--0h3------------------------              5|---3-3-3--2--1--0------
6|-0h3--0h3----10bp0-10bp0-10bpo---              6|---3-3-3--2--1--0------
  
   Theres a kinds solo here which is cool
   but i wont try to tab it!


1|---------------------------------------------------------------------------------------------|
2|---------------------------------------------------------------------------------------------|
3|--------------------------5-5-5-5---7-7-7-7---------12--12--12--12----5-5-5-5-----7-7-7-7----|
4|-----8--8---------8--8----3-3-3-3---5-5-5-5---8/10--10--10--10--10----3-3-3-3-----5-5-5-5----|
5|-----8--8---------8--8----3-3-3-3---5-5-5-5---8/10--10--10--10--10----3-3-3-3-----5-5-5-5----|
6|-----8--8---------8--8----3-3-3-3---5-5-5-5---8/10--10--10--10--10----3-3-3-3-----5-5-5-5----|

           I'm only stopping the heavy breathing,      I'm only stopping  to hit the ground

And so on then the outro is the same as intro!

Think thats right just get you thinkin anyway!

BUY THE ALBUM YOU CHEAPO IT RULES!!!

Please dont ask me how i did it cos.. I KEEP MY METHODS TO MYSELF!


 
:: Ultimate Guitar Archive :: 
http://www.ultimate-guitar.com 



Comments