6 Weeks - Got My Way Chords & Tabs

 

Got My Way Chords & Tabs

6 Weeks Chords & Tabs

Version: 1 Type: Tab 0 ratings
1 star 2 stars 3 stars 4 stars 5 stars
comments

Got My Way Tab

GOT MY WAY
			by 6 Weeks
			from somthin catchie
			tabbed by stevie perks

standard tuning - 2 guitars

G1

--3-------|-------------------
----------|----------5-3-0----
----5-5-3-|0-3-3-4-3----------
----------|-------------------
----------|-------------------
----------|-------------------


G2- G F C  follow the dowm and up strumming
[ Tab from: http://www.guitartabs.cc/tabs/0-9/6_weeks/got_my_way_tab.html ]
  d d du d   u u d u u du      
--3-3-33-x-|-1-1-1-3-3-3----
--5-5-55-x-|-3-3-3-5-5-5----
--5-5-55-x-|-3-3-3-5-5-5----
--4-4-45-x-|-2-2-2-5-5-5----
-----------|----------------
-----------|----------------

at the end of each verse bothe guitars play a (G F) link
then back to original riff.
will add the lead breaks at a later date.

*I don't see lightning like last fall* 

Comments