6 Voltios - Desde Que Te Conoci Chords & Tabs

 

Desde Que Te Conoci Chords & Tabs

6 Voltios Chords & Tabs

Version: 1 Type: Tab 0 ratings
1 star 2 stars 3 stars 4 stars 5 stars
comments

Desde Que Te Conoci Tab

   
-----------------------------------------------------------------------------
			     Desde Que Te Conoci - 6 Voltios
-----------------------------------------------------------------------------
Tabbed by: Jorge Wong (warlock)
Email: Darkstarwarlock@hotmail.com

Tuning:eadgbe

INTRO				Play the intro 2 times
e|---------------------------------------------------------------------------|
B|---------------------------------------------------------------------------|
G|--7------------------------------------------------------------------------|
D|--7--------------7---------------5--------------7--------------------------|
A|--5---9--10--9---7---9--10--12---5---9--10--9---7---10--9--7---------------|
E|-----------------5---------------3--------------5--------------------------|
  Verse 1			Play this verse 2 times
e|---------------------------------------------------------------------------|
B|---------------------------------------------------------------------------|
G|-*7*7*7*7*7----------------------------------------------------------------|
D|-*7*7*7*7*7--*7*7*7*7*7--*5*5*5*5*5--*7*7*7*7*7----------------------------|
A|-*5*5*5*5*5--*7*7*7*7*7--*5*5*5*5*5--*7*7*7*7*7----------------------------|
E|-------------*5*5*5*5*5--*3*3*3*3*3--*5*5*5*5*5----------------------------|

		Play the intro two times, and Verse 1 two times
Verse 2
e|----------------------------------------------------------------------------|
B|----------------------------------------------------------------------------|
G|------------------------------7-7-7-7-7-------------------------------------|
D|--5-5-5-5-5-----7-7-7-7-7-----7-7-7-7-7----9-9-9-9-9---5-5-5-5-5--7-7-7-7-7-|
A|--5-5-5-5-5-----7-7-7-7-7-----5-5-5-5-5----9-7-7-7-7---5-5-5-5-5--7-7-7-7-7-|
E|--3-3-3-3-3-----5-5-5-5-5------------------7-7-7-7-7---3-3-3-3-3--5-5-5-5-5-|

Play this twice
e|---------------------------------------------------------------------------|
B|---------------------------------------------------------------------------|
G|-*7*7*7*7--*9--*7*7*7*7--*9--*7*7*7*7--*9--*12--*12--*11--*9---------------|
D|-*7*7*7*7--*9--*7*7*7*7--*9--*7*7*7*7--*9--*12--*12--*11--*9---------------|
A|-*5*5*5*5--*7--*5*5*5*5--*7--*5*5*5*5--*7--*10--*10--*9---*7---------------|
E|---------------------------------------------------------------------------|
[ Tab from: http://www.guitartabs.cc/tabs/0-9/6_voltios/desde_que_te_conoci_tab.html ]
CHORUS
Play this 3 times
e|---------------------------------------------------------------------------|
B|---------------------------------------------------------------------------|
G|--7-7-7-7-7----9-9-9-9-9---------------------------------------------------|
D|--7-7-7-7-7----9-9-9-9-9----5-5-5-5-5----7-7-7-7-7-------------------------|
A|--5-5-5-5-5----7-7-7-7-7----5-5-5-5-5----7-7-7-7-7-------------------------|
E|----------------------------3-3-3-3-3----5-5-5-5-5-------------------------|

Then play this
e|---------------------------------------------------------------------------|
B|---------------------------------------------------------------------------|
G|---7-7-7-7-7----9-9-9-9-9--------------------------------------------------|
D|---7-7-7-7-7----9-9-9-9-9----5\7-------------------------------------------|
A|---5-5-5-5-5----7-7-7-7-7----5\7-------------------------------------------|
E|-----------------------------3\5-------------------------------------------|

Play the INTRO twice

Play this twice
VERSE 3
e|----------------------------------------|----------------------------------|
B|--------------------Guitar-2-plays-this-|-----------------------Guitar-2---|
G|--*7*7*7*7--*9--*7-----7--9--11---------|--*7*7*7*7---*9-*11----12--11--9--|
D|--*7*7*7*7--*9--*7----------------------|--*7*7*7*7---*9-*11---------------|
A|--*5*5*5*5--*7--*5----------------------|--*5*5*5*5---*7-*9----------------|
E|----------------------------------------|----------------------------------|
Then...Play this twice
e|---------------------------------------------------------------------------|
B|---------------------------------------------------------------------------|
G|-----7---------------------------------------------------------------------|
D|-----7---7---5---7---------------------------------------------------------|
A|-----5---7---5---7---------------------------------------------------------|
E|---------5---3---5---------------------------------------------------------|

Play VERSE 3 twice...and repeat from
VERSE 1 without the palm muting until u get to the intro

Es todo Pankos!!!! Darkstarwarlock@hotmail.com pero no chingen!!!
| /  slide up
| \  slide down
| h  hammer-on
| p  pull-off
| ~  vibrato
| +  harmonic
| x  Mute note
=============================================================================
Comments