6 Cycle Mind - Wait Or Go Chords & Tabs

 

Wait Or Go Chords & Tabs

6 Cycle Mind Chords & Tabs

Version: 2 Type: Tab 0 ratings
1 star 2 stars 3 stars 4 stars 5 stars
comments

Wait Or Go Tab

   
Song  :Wait Or Go
Artist:6Cycle Mind
Album :Permission To Shine
Tabber:GeNoCiDe_GLiTcH 
Tuning:Standard Tuning [ E B G D A E ]

Tab Legend:
 h - hammer on
 p - pull off from / hammer off
 S - shift slide


    C   F   Em  Am	     C	F  Em  Am
e|-------------------|    |--3--1--0---0---|
B|-------------------|    |--5--1--0---1---|
G|-------------------| or |--5--2--0---2---|
D|--5----------------|	  |--5--3--2---2---|
A|--3---3---2---7----|	  |--3--3--2---0---|
E|------1---0---5----|	  |-----1--0---0---|

A. 1st Intro

e|--------------------------------------------|
B|-------13----13------------------13----13---|
G|----------12----12------------12----12------| x2
D|--------------------------------------------|
A|--------------------------------------------|
E|--12p0---------------12-12h13---------------|

B. 2nd Intro

e|------------------------------------------|
B|--8S13-13-13-12-13-13s17-17-17-15-17-15---|
G|------------------------------------------|
D|------------------------------------------|
A|------------------------------------------|
E|------------------------------------------|


e|--------------------15-------------|
B|--8S13-13-13-12-13------13-15-13---|
G|-----------------------------------|
D|-----------------------------------|
A|-----------------------------------|
E|-----------------------------------|


C. Verse 1
Riff for verse 1

e|-------------------------------------------|
B|-------13----13-----------------13----13---|
G|----------12----12-----------12----12------| x4
D|-------------------------------------------|
A|-------------------------------------------|
E|--12p0-----------------12-12h13------------|
[ Tab from: http://www.guitartabs.cc/tabs/0-9/6_cycle_mind/wait_or_go_tab_ver_2.html ]
e|-------------------------------|
B|----5h7----5h7----5h7----5h7---|
G|--7------7------7------7-------|
D|-------------------------------|
A|-------------------------------|
E|-------------------------------|

C
I've been hopeless
F			C-F
Waiting here in my door
C
From the top of my head
F			C-F 
Down to this narrow floor


D. Refrain 1

	 Em	  Am
I've been so awake
	     Em	       Am
And I've been so afraid 
	C-F
To know, 
	C-F
to know 


E. Chorus

C						F
Tell me what to do I don't know why I'm hopeless 
	     C-F
In this show
C
Tell me it does'nt hurt
		F		C-F 
If I'll find out that I'm alone 


F. Refrain 2

C			     F
Coz I am waiting for so long 
	C		F
Do I need to wait or go 
C	   F          C-F	
Wait or go, wait or go 

C				  F
Coz I've been waiting for so long 
	C             F
Do I need to wait or go 

G. Chorus

C						F
Tell me what to do I don't know why I'm hopeless 
	     C-F
In this show
C
Tell me it does'nt hurt
	F			C-F 
If I'll find out that I'm alone 

H. Coda

C					    F
Tell me what to do I don't know why I'm hopeless 
C					    F
Tell me what to do I don't know why I'm hopeless 
C					    F
Tell me what to do I don't know why I'm hopeless 

	   C-F
Wait or go 
	   C-F
Wait or go 
	   C-F
Wait or go 

That's it! F u hav seen any errors, just notify me, ok?
Please rate my tab. Tnx 4 ur appreciation. Happy Playing!
Comments