6 Cycle Mind - Wait Or Go Chords & Tabs

 

Wait Or Go Chords & Tabs

6 Cycle Mind Chords & Tabs

Version: 1 Type: Tab 0 ratings
1 star 2 stars 3 stars 4 stars 5 stars
comments

Wait Or Go Tab

   
Artist: 6 cycle mind
Title: wait or go
By: Tiano Magsombol
E-mail: dishwalla84@yahoo.com


intro:
e|------8---8-------------8---8--------8---8-------------8---8----|
B|--------8---8---------8---8------------8---8---------8---8------|
G|----------------------------------------------------------------|
D|----------------------------------------------------------------|
A|----7-----------7-7h8--------------7-----------7-7h8------------|
E|--8------------------------------8------------------------------|


e|------------------------------------------|
B|-12-12h13-13-13-12-13--15-17-17-17-15-13--|
G|------------------------------------------|
D|------------------------------------------|
A|------------------------------------------|
E|------------------------------------------|

e|--------------------------15----15--------|
B|-12-12h13-13-13-12-13--17----17-----------|
G|------------------------------------------|
D|------------------------------------------|
A|------------------------------------------|
E|------------------------------------------|


verse riff:
[ Tab from: http://www.guitartabs.cc/tabs/0-9/6_cycle_mind/wait_or_go_tab.html ]
e|------8---8-------------8---8--------8---8-------------8---8----|
B|--------8---8---------8---8------------8---8---------8---8------|
G|----------------------------------------------------------------|
D|----------------------------------------------------------------|
A|----7-----------7-7h8--------------7-----------7-7h8------------|
E|--8------------------------------8------------------------------|
           C              F               C
i've been hopeless      waiting here in my door............

e|------0h3---0h3---0h3---0h3--------|
B|----3-----3-----3-----3------------|
G|-----------------------------------|
D|-----------------------------------|
A|-----------------------------------|
E|-----------------------------------|

.........door(kasunod nung nsa taas, riff lang nung F na chord sa verse)

from the top of my head
down to this narrow floor


refrain:
     Em          Am
i've been so awake
     Em           Am
i've been so afraid
   C-F        C-F
to show....to show


chorus:
C
tell me what to do
                    F
i dont know why i'm hopeless
C                            F
tell me it doesn't hurt if i find out
            C-F
that i'm alone


*un na un,..pkinggan nio n lang....

ECE rules..hehe.. 1 yir n lang graduate na kme...
ECE BSU(Batangas State University) chapter....
helow sa inyong lahat............ciao
Comments