6 Cycle Mind - Wait Or Go Chords & Tabs

 

Wait Or Go Chords & Tabs

6 Cycle Mind Chords & Tabs

Version: 1 Type: Bass Tab 0 ratings
1 star 2 stars 3 stars 4 stars 5 stars
comments

Wait Or Go Bass Tab

   
#------------------------------------------------------------------------------#
#This file is the author's own work and represents their interpretation of the #
#song. You may only use this file for private study, scholarship, or research. #
#------------------------------------------------------------------------------#


Date: Wed, 10 Sept 2005 17:23:16 +0800
From: ck
Subject: TAB: Wait or Go (Bass Tab) by 6 cyclemind
Title:		Wait or Go 
Band: 		6 cyclemind
Tabbed by:	ck
Email:	marckalen@yahoo.com
Tuning:	EADGBe


Play before rate!!

Tab i2 ng kapatid qo pnpa-post nia skin..ok 2! Testing nio.

E-mail nio na lang po me kung me konting tanong at comments pra ma-correct natin!

"Ok Just Rok Pinoy Bands!" Support Our Own Pinoy Alternative bands...
===============================================================================


Intro
G|---------------------------------------|
D|-----------------------------2/3---3---|
A|--333333--------------333333-----------|
E|---------5/1-111-011-------------1-----|


Verse:

G|------------------------------------|
D|------------------------------------|  2x
A|333-0------333-----333-----------3--|  
E|------11-0-----111-----111-0---3----|

Refrain

G|----------------------------------------|
D|----------------------------------------|
A|-------000-0-------000---333333---------|
E|-000---------000-0--------------111111--|


Chorus
[ Tab from: http://www.guitartabs.cc/tabs/0-9/6_cycle_mind/wait_or_go_btab.html ]
G|----------------------------------------|   
D|----------------------------------------| 
A|-3-33-3-----------333-----3-33-3--------|      
E|---------1-111-1------111--------111-1--| 

G|----------------------------------------|   
D|----------------------------------------| 
A|-3-33-3-----------333-----3-33-3--------|      
E|---------1-111-1------111--------111-1--|

Refrain

G|-------------------------------------------|
D|-------------------------------------------|
A|--3-33-3------------333--------3333------|
E|----------11-11-11------111111---------111-|

G|--------------------------------------------------------------------|
D|--------------------------------------------------------------------|
A|--33-(pause)-33---------33-(pause)-33-------------------------------|
E|-----------------111111----------------1111---88-(pause)88-8/1--111-|

G|---------------------------------------|
D|---------------------------------------|
A|--33333--------3333-------3333---------|
E|---------1111-------1111--------1111---|


Legends:

| /  slide up
| \  slide down
| h  hammer-on
| p  pull-off
| ~  vibrato
| +  harmonic
| x  Mute note


===============================================================================

Sna mgustuhan nio i2!! D i2 gnun k-accurate pro testing nio din at "Paki - rate
na rin " --- Pakinggan nio na lng sa Cd ung tyempo at kung saan papasok lam qo
me kulang p d2 Fist time lng po eh, paulit - ulit lng nmn ung madami d2.. Astig
Talaga Bandang Pinoy!! Keep Rockin'.. Suppport OPM Bands 

---- for violent reaction and correction/comments ----
email me at:
marckalen@yahoo.com

Sna meron na Solo Tab ng Jopay hehehe!..

===============================================================================
Comments