6 Cycle Mind - Sige Chords & Tabs

 

Sige Chords & Tabs

6 Cycle Mind Chords & Tabs

Version: 8 Type: Tab 0 ratings
1 star 2 stars 3 stars 4 stars 5 stars
comments

Sige Tab

   
 Band:6cyclemind
 Song:Sige
 Age:14 yrs. old
 Tab explanation:
 x/pm=palm mute
 h=hammer
 ~=vibrato
 b=bend
 /=slide
 email address/cp no.: brandon_rakista@yahoo.com/09186243757

 Note: i try the other tabs, pero sa tingin ko mas ok pa rin to!
       try nyo nlng ok?????

 Intro: w/ distortion
 e-----------------------------|--------------------------------|
 b-----------------------------|----------5-4-3-----------------|
 g-----------------------------|----------------0-2~~~~---------|(2X)
 d------------------------xx---|-------------------------xxx----|
 a-3-0-----5h6--7-6-5-3-5-xx---|-3-0---------------------xxx----|
 E-----3-5----------------xx---|-----3-5-----------------xxx----|

 verse 1:(clean) guitar pick!
 e--------------------------------------------------------------|
 b--------------------------------------------------------------|
 g----------7-7-7-7-7---------55555-----1010101010--------------|
 d--55555---x-x-x-x-x---------77777-----1010101010--------------|
 a--33333--1010101010---------77777------8-8-8-8-8--------------|
 E---------1010101010--------------------8-8-8-8-8--------------|

 w/ distortion!(strumming??? just listen to the cd!!!)
 e--------------------------------------------|
 b--------------------------------------------|
 g--55555-------------------------------------|
 d--55555---55555-----77777----33333----------|
 a--33333---55555-----77777----33333----------|
 E----------33333-----55555----11111----------|

 Refrain:( may palm mute sa parteng ito)
 e-------------------------------------|
 b-------------------------------------|
 g-------------------------------------|
 d-22222--77777---22222--77777---------|
 a-22222--77777---22222--77777---------|
 E-00000--55555---00000--55555---------|
   Pm...  Pm...   Pm...  Pm......

 e-------------------------------------|
 b-------------------------------------|
 g-------------------------------------|
 d-22222--77777---33333--55555---------|
 a-22222--77777---33333--55555---------|
 E-00000--55555---11111--33333---------|
   Pm...  Pm...

 Chorus:
 e-------------------------------------|
 b-------------------------------------|
 g-55555-------------------------------|
 d-55555----55555---7---------33333----|
 a-33333----55555---7(break)--33333----|
 E----------33333---5---------11111----|
[ Tab from: http://www.guitartabs.cc/tabs/0-9/6_cycle_mind/sige_tab_ver_8.html ]
 e-------------------------------------|
 b-------------------------------------|
 g-55555-------------------------------|
 d-55555----55555---77777-----33333----|
 a-33333----55555---77777-----33333----|
 E----------33333---55555-----11111----|

 Verse 2:gawin ung mga chords sa verse 1!!
         then (Repeat Refrain)
              (Repeat chorus)

 Solo:
 e--------------------------------------------------------------------------- --------------------|
 b--------------------------------------------------------------------------- --------------------|
 g--------------------------------------------------------------------------- -12-----------------|
 d-10-------12-------14-------15-------14----12----12-------14-------15------ ----------15----14--|
 a----10-10----10-10----10-10----10-10----10----10----10-10----10-10----10-  10-----10-10----10---|
 E--------------------------------------------------------------------------- --------------------|

 e--------------------------------------------------------------------|
 b----------------------------------------------------13-13/17-15~----|
 g-------12-------12-------12-------12---12b~~~-12/14-----------------|
 d-14h15----14-15----14-15----14-15-----------------------------------|
 a--------------------------------------------------------------------|
 e--------------------------------------------------------------------|

 e----------12-15-12----------------------------12-15-12--------------------- ----------------|
 b----13-15----------13-15--(4x)------13-15----------15p13h15br15-15---13---- ----------------|
 g-12----------------------------------12------------------------------------ -14-12-----12b--|
 d--------------------------------------------------------------------------- -------13-------|
 a--------------------------------------------------------------------------- ----------------|
 E--------------------------------------------------------------------------- ----------------|
       Then(Repeat Refrain)
           (Repeat chorus)

 then after the chorus 1 play this.............
 e----8-----8---|-----8-----8---|----8-----8---|----8-----8---|
 b------8-8---8-|-------8-8---8-|------8-8---8-|------8-----8-|
 g--------------|---------------|--------------|--------------|
 d--------------|---------------|--------------|-8------8-----|
 a--------------|---------------|--------------|--------------|
 E-8------------|--7------------|-5------------|--------------|

 e----8-----8---|------------|-----------|-------------|
 b------8-8---8-|------------|-----------|-------------|
 g--------------|--7-7-7-7-7-|-9-9-9-9-9-|--8-8-8-8-8--|
 d--------------|------------|-----------|--8-8-8-8-8--|
 a--------------|------------|-----------|-1010101010--|
 E--8-----------|------------|-----------|-1010101010--|
     (Repeat Chorus)
     (Intro)
Comments