6 Cycle Mind - Sige Chords & Tabs

 

Sige Chords & Tabs

6 Cycle Mind Chords & Tabs

Version: 3 Type: Tab 0 ratings
1 star 2 stars 3 stars 4 stars 5 stars
comments

Sige Tab

   
Title: Sige
Artist: 6cyclemind
Album: Permission To Shine
Tabbed by Josh Bier

Update: I've tabbed pretty much the whole song, except for most of the lead parts in
the verses and choruses which are hard to figure out... I'll put them soon. I'm not
sure about the intro/outro either... but they sound close enough. Sorry na lang kung
mahirap basahin yung tab... it's actually easier to understand this tab using the
original Powertab file. If you want it, just email me at o_darkstalker_o@yahoo.com.


Gtr I (E A D G B E) - 'Lead (Distortion)'
Gtr II (E A D G B E) - 'Rhythm (Distortion)'
Gtr III (E A D G B E) - 'Rhythm (Clean)'

NOTE: Gtr II and III are the same guitar.

 Intro
  Moderate Rock Q=85
  N.C.
 4/4
  Gtr II
|-----------------------------------------------------------------|
|-----------------------------------------------------------------|
|-----------------------------------------------------------------|
|-----------------------------------------------------------------|
|-----------------------------------------------------------------|
|-----------------------------------------------------------------|
|
| Gtr I
|  <
|-----------------------------------------------------------------|
|-----------------------------------------------------------------|
|-<7>-<7>-<7>-<7>-<7>-<7>-<7>-<7>-<7>-<7>-<7>-<7>-<7>-<7>-<7>-<7>-|
|-----------------------------------------------------------------|
|-----------------------------------------------------------------|
|-----------------------------------------------------------------|


|-!<7>--------------------------------------------------------------|
|-!<7>--------------------------------------------------------------|
|-!<7>--------------------------------------------------------------|
|-!<7>--------------------------------------------------------------|
|-------------------------------------------------------------------|
|-------------------------------------------------------------------|
|
|-------------------------------------------------------------------|
|-------------------------------------------------------------------|
|--<7>-<7>-<7>-<7>-<7>-<7>-<7>-<7>-<7>-<7>-<7>-<7>-<7>-<7>-<7>-<7>--|
|-------------------------------------------------------------------|
|-------------------------------------------------------------------|
|-------------------------------------------------------------------|

NOTE: Numbers enclosed in < > are natural harmonics.


  C5                                                           A5
|------------------------------------------------------------------|
|------------------------------------------------------------------|
|------------------------------------------------------------------|
|-10------------------------------------------------------(10)s=7S=|
|-10------------------------------------------------------(10)s=7S=|
|--8-------------------------------------------------------(8)s=5S=|
|
|------------------------------------------------------------------|
|------------------------------------------------------------------|
|-<7>-<7>-<7>-<7>-<7>-<7>-<7>-<7>-<7>-<7>-<7>-<7>-<7>-<7>--<7>-<7>-|
|------------------------------------------------------------------|
|------------------------------------------------------------------|
|------------------------------------------------------------------|


  C5
   ~~~
|-----------------------------------------------------------------||
|-----------------------------------------------------------------||
|-----------------------------------------------------------------||
|-10--------------------------------------------------------------||
|-10--------------------------------------------------------------||
|--8--------------------------------------------------------------||
|
|-----------------------------------------------------------------||
|-----------------------------------------------------------------||
|-<7>-<7>-<7>-<7>-<7>-<7>-<7>-<7>-<7>-<7>-<7>-<7>-<7>-<7>-<7>-<7>-||
|-----------------------------------------------------------------||
|-----------------------------------------------------------------||
|-----------------------------------------------------------------||


  C                  Em              C               Em
|------------------|---------------|---------------|---------------|
|------------------|---------------|---------------|-4s5-4-3-------|
|------------------|---------------|---------------|----------0-2--|
|------------------|-2-1-0---0-x-x-|---------------|---------------|
|-3-0---0----------|-------3---x-x-|-3-0---0--(0)--|---------------|
|-----3------------|---------------|-----3---------|---------------|
|
|------------------|---------------|---------------|---------------|
|------------------|---------------|---------------|-4s5-4-3-------|
|------------------|---------------|---------------|----------0-2--|
|--------------0-1-|-2-1-0---0-----|---------------|---------------|
|-3-0---0--(0)-----|-------3-------|-3-0---0--(0)--|---------------|
|-----3------------|---------------|-----3---------|---------------|


  C                  Em              C               Em
|------------------|---------------|---------------|----------------||
|------------------|---------------|---------------|-/5---4-3-------||
|------------------|---------------|---------------|-/4---3-2-------||
|------------------|-2-1-0---0-x-x-|---------------|-/2---1-0--5-7--||
|-3-0---0----------|-------3---x-x-|-3-0---0--(0)--|-----------5-7--||
|-----3------------|---------------|-----3---------|-----------3-5--||
|
|------------------|---------------|---------------|----------------||
|------------------|---------------|---------------|--4s5-4-3-------||
|------------------|---------------|---------------|-----------0-2--||
|--------------0-1-|-2-1-0---0-----|---------------|----------------||
|-3-0---0--(0)-----|-------3-------|-3-0---0--(0)--|----------------||
|-----3------------|---------------|-----3---------|----------------||


 Verse 1
  C5                Em7               Am                  F
  Gtr III
|-----------------|-----------------|-------------------|-1---1---1---1-x--|
|-----------------|-3---3---3---3-3-|-----------------1-|-1---1---1---1-x--|
|-5---5---5---5-5-|-0---0---0---0-0-|-2---2---2---2-2-2-|-2-2---2---2-2-x--|
|-5---5---5---5-5-|---5---5---5---5-|-2---2---2---2-2---|------------------|
|---3---3---3---3-|-----------------|---0-------0---0---|------------------|
|-----------------|-----------------|-------0-----------|------------------|


  C5               Em7             Am                F5
  Gtr II
|----------------|-7--7-7--7-7---|-5-5-5-5-5-5-5---|----------------||
|----------------|-8--8-8--8-8---|-5-5-5-5-5-5-5-0-|--------------0-||
|-5--5-5-5-5-5-5-|-7--7-7--7-7\--|-5-5-5-5-5-5-5-0-|--------------0-||
|-5--5-5-5-5-5-5-|-9--9-9--9-9---|-7-7-7-7-7-7-7---|-3-3-3-3--3-3-0-||
|-3--3-3-3-3-3-3-|-7--7-7--7-7---|-7-7-7-7-7-7-7---|-3-3-3-3--3-3---||
|----------------|---------------|-5-5-5-5-5-5-5---|-1-1-1-1--1-1---||


 Pre-Chorus
  $
  Em                      Am
    PM|   PM--|             PM--|     PM|
|-----------------------|-------------------------|
|-----------------------|-------------------------|
|-----------------------|-2-2-2-2-2-2-2-2---------|
|-2-2-2-2-2-2-2---------|-2-2-2-2-2-2-2-2-----0h2-|
|-2-2-2-2-2-2-2---------|-0-0-0-0-0-0-0-0-0h3-----|
|-0-0-0-0-0-0-0-3p0-0h3-|-------------------------|


  Em                      Am
    PM|   PM--|             PM  PM
|-----------------------|---------------------|
|-----------------------|---------------------|
|-----------------------|-2-2-2-2-2-2---------|
|-2-2-2-2-2-2-2---------|-2-2-2-2-2-2-----0h2-|
|-2-2-2-2-2-2-2---------|-0-0-0-0-0-0-0h3-----|
|-0-0-0-0-0-0-0-3p0-0h3-|---------------------|


  Em                      Am
    PM|   PM--|             PM  PM
|-----------------------|-------------------------|
|-----------------------|-------------------------|
|-----------------------|-2-2-2-2-2-2-2-2---------|
|-2-2-2-2-2-2-2---------|-2-2-2-2-2-2-2-2-----0h2-|
|-2-2-2-2-2-2-2---------|-0-0-0-0-0-0-0-0-0h3-----|
|-0-0-0-0-0-0-0-3p0-0h3-|-------------------------|


  F               G
|-1--1-1--1-1-1-|-3--3-3-3-3-3-3-||
|-1--1-1--1-1-1-|-3--3-3-3-3-3-3-||
|-2--2-2--2-2-2-|-4--4-4-4-4-4-4-||
|-3--3-3--3-3-3-|-5--5-5-5-5-5-5-||
|-3--3-3--3-3-3-|-5--5-5-5-5-5-5-||
|-1--1-1--1-1-1-|-3--3-3-3-3-3-3-||


   Chorus
                                       1.
    C                 Em                Am      F5
||------------------|-----------------|-----------|---------------------||
||o-5-5-5-5-5-5-5-5-|-----------------|-----------|--------------------o||
||--5-5-5-5-5-5-5-5-|-9-9-9-9-9-9-9-9-|-2---------|---------------------||
||--5-5-5-5-5-5-5-5-|-9-9-9-9-9-9-9-9-|-2-------3-|-(3)-3-3-3-3-5-5-5---||
||o-3-3-3-3-3-3-3-3-|-7-7-7-7-7-7-7-7-|-0-------3-|-(3)-3-3-3-3-5-5-5--o||
||------------------|-----------------|---------1-|-(1)-1-1-1-1-3-3-3---||


  2.
                                             To Coda
  Am                F                             G
|-----------------|-----------------|----------------||
|---------------0-|-----------------|----------------||
|-2-2-2-2-2-2-2-0-|-----------------|----------------||
|-2-2-2-2-2-2-2-0-|-3-3-3-3-3-3-3-3-|-3-3-3-3-3-3-5--||
|-0-0-0-0-0-0-0---|-3-3-3-3-3-3-3-3-|-3-3-3-3-3-3-5--||
|-----------------|-1-1-1-1-1-1-1-1-|-1-1-1-1-1-1-3--||


 Verse 2
  C5             Em7           Am            F         G
|--------------|-------------|-5---5--5-5--|-1---1---1s3-|
|--------------|-8---8--8-8--|-5---5--5-5--|-1---1---1s3-|
|-5---5----(5)-|-7---7--7-7--|-5---5--5-5--|-2---2---2s4-|
|-5---5----(5)-|-9---9--9-9--|-7---7--7-7--|-3---3---3s5-|
|-3---3----(3)-|-7---7--7-7--|-7---7--7-7--|-3---3---3s5-|
|--------------|-------------|-5---5--5-5--|-1---1---1-3-|

[ Tab from: http://www.guitartabs.cc/tabs/0-9/6_cycle_mind/sige_tab_ver_3.html ]
                                                     D.S. al Coda
  C5              Em7              Am                F
|---------------|----------------|-5--5-5--5-5-----|-1--1-1--1-1--||
|---------------|-8-8-8-8--8-8---|-5--5-5--5-5-----|-1--1-1--1-1--||
|-5--5-5--5-5-0-|-7-7-7-7--7-7\--|-5--5-5--5-5--0--|-2--2-2--2-2--||
|-5--5-5--5-5-0-|-9-9-9-9--9-9---|-7--7-7--7-7--0--|-3--3-3--3-3--||
|-3--3-3--3-3---|-7-7-7-7--7-7---|-7--7-7--7-7-----|-3--3-3--3-3--||
|---------------|----------------|-5--5-5--5-5-----|-1--1-1--1-1--||


 Guitar Solo
  &
  C5                                E5
 4/4
|---------------------------------|----------------------------------|
|---------------------------------|----------------------------------|
|-5---5---5---5---5---5---5---5---|-4---4---4---4---4---4---4---4----|
|-5---5---5---5---5---5---5---5---|-2---2---2---2---2---2---2---2----|
|-3---3---3---3---3---3---3---3---|-2---2---2---2---2---2---2---2----|
|---------------------------------|-0---0---0---0---0---0---0---0----|
|
|---------------------------------|----------------------------------|
|-------------5-----6-----5-------|-------5-----6-----8-----6---5----|
|-5-----7---------------------7---|-7--------------------------------|
|---5-5---5-5---5-5---5-5---5---5-|---5-5---5-5---5-5---5-5---5---5--|
|---------------------------------|----------------------------------|
|---------------------------------|----------------------------------|


  A5                                            F5
|-------------------------------------------|-----------------------------|
|-------------------------------------------|-----------------------------|
|-2-----2----2----2-----2----2------2-----2-|-----------------------------|
|-2-----2----2----2-----2----2------2-----2-|----3-3-3--3-----3---3---3-3-|
|-0-----0----0----0-----0----0------0-----0-|----3-3-3--3-----3---3---3-3-|
|-------------------------------------------|----1-1-1--1-----1---1---1-1-|
|
|                                                                     ~~
|---------------------------------[10]b12---|--------8-10b12====(10)r10---|
|-------------------------------------------|-6s10------------------------|
|-9h10-12-9h10-12-9h10-12-9h10-12-----------|-----------------------------|
|-------------------------------------------|-----------------------------|
|-------------------------------------------|-----------------------------|
|-------------------------------------------|-----------------------------|


  C5
|-------------------------------------------------|
|-------------------------------------------------|
|--5-----5-----5-----5-----5-----5-----5-----5----|
|--5-----5-----5-----5-----5-----5-----5-----5----|
|--3-----3-----3-----3-----3-----3-----3-----3----|
|-------------------------------------------------|
|
|----------12-15-12----------------12-15-12-------|
|-------15----------15----------15----------15----|
|----14----------------14----14----------------14-|
|-12----------------------12----------------------|
|-------------------------------------------------|
|-------------------------------------------------|


  E5
|-------------------------------------------------|
|-------------------------------------------------|
|--4-----4-----4-----4-----4-----4-----4-----4----|
|--2-----2-----2-----2-----2-----2-----2-----2----|
|--2-----2-----2-----2-----2-----2-----2-----2----|
|--0-----0-----0-----0-----0-----0-----0-----0----|
|
|----------12-17-12----------------12-17-12-------|
|-------15----------15----------15----------15----|
|----14----------------14----14----------------14-|
|-12----------------------12----------------------|
|-------------------------------------------------|
|-------------------------------------------------|


  A5
|-------------------------------------------------|
|-------------------------------------------------|
|--2-----2-----2-----2-----2-------2---------2--2-|
|--2-----2-----2-----2-----2-------2---------2--2-|
|--0-----0-----0-----0-----0-------0---------0--0-|
|-------------------------------------------------|
|
|                                            ~~~~~
|----------12-15-12-------------------------------|
|-------15----------15-13-15b17==(15)r15p13-15-15-|
|----14-------------------------------------------|
|-12----------------------------------------------|
|-------------------------------------------------|
|-------------------------------------------------|


  F5
|------------------------------||
|------------------------------||
|------------------------------||
|-3---3-3-3-3--------3-3-3-----||
|-3---3-3-3-3--------3-3-3-----||
|-1---1-1-1-1--------1-1-1-----||
|
|                 ~~~~
|------------------------------||
|-5s8--------------------------||
|-----7-5---7b9==(7)r======(7)-||
|---------7--------------------||
|------------------------------||
|------------------------------||


 Pre-Chorus
  Em                      Am
    PM|   PM--|             PM--|     PM|
|-----------------------|-------------------------|
|-----------------------|-------------------------|
|-----------------------|-2-2-2-2-2-2-2-2---------|
|-2-2-2-2-2-2-2---------|-2-2-2-2-2-2-2-2-----0h2-|
|-2-2-2-2-2-2-2---------|-0-0-0-0-0-0-0-0-0h3-----|
|-0-0-0-0-0-0-0-3p0-0h3-|-------------------------|


  Em                      Am
    PM|   PM--|             PM  PM
|-----------------------|---------------------|
|-----------------------|---------------------|
|-----------------------|-2-2-2-2-2-2---------|
|-2-2-2-2-2-2-2---------|-2-2-2-2-2-2-----0h2-|
|-2-2-2-2-2-2-2---------|-0-0-0-0-0-0-0h3-----|
|-0-0-0-0-0-0-0-3p0-0h3-|---------------------|


  Em                      Am
    PM|   PM--|             PM  PM
|-----------------------|-------------------------|
|-----------------------|-------------------------|
|-----------------------|-2-2-2-2-2-2-2-2---------|
|-2-2-2-2-2-2-2---------|-2-2-2-2-2-2-2-2-----0h2-|
|-2-2-2-2-2-2-2---------|-0-0-0-0-0-0-0-0-0h3-----|
|-0-0-0-0-0-0-0-3p0-0h3-|-------------------------|


  F               G
|-1--1-1--1-1-1-|-3--3-3--3-3--||
|-1--1-1--1-1-1-|-3--3-3--3-3--||
|-2--2-2--2-2-2-|-4--4-4--4-4--||
|-3--3-3--3-3-3-|-5--5-5--5-5--||
|-3--3-3--3-3-3-|-5--5-5--5-5--||
|-1--1-1--1-1-1-|-3--3-3--3-3--||


 Chorus Breakdown
  C5               Em+5             Am7              Fsus2
  Gtr III
|---8--------8---|---8--------8---|---8--------8---|-----8--------8---|
|-----8--------8-|-----8--------8-|-----8--------8-|---8---8--------8-|
|----------------|----------------|----------------|------------------|
|----------------|----------------|----------------|------------------|
|----------------|----------------|-0------(0)-----|-8--------(8)-----|
|-8------(8)-----|-0------(0)-----|----------------|------------------|


  C5                Em+5              Am7
|-8---8---8---8---|-8---8---8---8---|-8---8---8---8----|
|---8---8---8---8-|---8---8---8---8-|---8---8---8---8--|
|-----------------|-----------------|------------------|
|-----------------|-----------------|------------------|
|-----------------|-----------------|-0----------------|
|-8---------------|-0---------------|------------------|
|
| Gtr I
|-----------------|-----------------|------------------|
|-1-1-1-1-1-1-1-1S|=3-3-3-3-3-3-3-3S|=5-5-5-5-5-5-5-5\-|
|-----------------|-----------------|------------------|
|-----------------|-----------------|------------------|
|-----------------|-----------------|------------------|
|-----------------|-----------------|------------------|


  F5                       G5
                           Gtr II
|------------------------|-----------------------||
|------------------------|-----------------------||
|------------------------|---------------------0-||
|-3---3-3-3---3-3-3-3-3--|-3s5-5-3-3s5-5-3-5-x-0-||
|-3---3-3-3---3-3-3-3-3--|-3s5-5-3-3s5-5-3-5-x---||
|-1---1-1-1---1-1-1-1-1--|-1s3-3-1-1s3-3-1-3-x---||
|
|------------------------|-----------------------||
|------------------------|-----------------------||
|------------------------|-----------------------||
|-3-3---3-3s5-----3---3\-|-----------------------||
|------------------------|-----------------------||
|------------------------|-5s8-8-x-5s8-8-5-8-----||


   Out-Chorus
                                                         1.
    C                 Em                Am                F5
||------------------|-----------------|-----------------|-------------------||
||o-----------------|-----------------|-----------------|------------------o||
||--5-5-5-5-5-5-4-0-|-9-9-9-9-9-9-9-9-|-2-2-2-2-2-2-2---|-------------------||
||--5-5-5-5-5-5-5-5-|-9-9-9-9-9-9-9-9-|-2-2-2-2-2-2-2-2-|-3-3-3-3-3-3-3-5---||
||o-3-3-3-3-3-3-3-3-|-7-7-7-7-7-7-7-7-|-0-0-0-0-0-0-0-2-|-3-3-3-3-3-3-3-5--o||
||------------------|-----------------|---------------0-|-1-1-1-1-1-1-1-3---||


  2.
  F5
|-----------------|-----------------||
|-----------------|-----------------||
|-----------------|-----------------||
|-3-3-3-3-3-3-3-3-|-3-3-3-3-3-3-3-3-||
|-3-3-3-3-3-3-3-3-|-3-3-3-3-3-3-3-3-||
|-1-1-1-1-1-1-1-1-|-1-1-1-1-1-1-1-1-||


 Outro
  C                  Em              C               Em
  Gtr I
      ~                  ~~~~            ~                      ~
|------------------|---------------|---------------|-------------------|
|------------------|---------------|---------------|-4s5-4-3-----------|
|------------------|---------------|---------------|----------0-2-x-x--|
|--------------0-1-|-2-1-0---0-x-x-|---------------|-------------------|
|-3-0---0-(0)------|-------3---x-x-|-3-0---0--(0)--|-------------------|
|-----3------------|---------------|-----3---------|-------------------|


  C                  Em              C               Em
      ~                  ~~~~            ~
|------------------|---------------|---------------|---------------||
|------------------|---------------|---------------|-/5-4-3--------||
|------------------|---------------|---------------|-/4-3-2--------||
|--------------0-1-|-2-1-0---0-x-x-|---------------|-/2-1-0--5-7---||
|-3-0---0--(0)-----|-------3---x-x-|-3-0---0--(0)--|---------5-7---||
|-----3------------|---------------|-----3---------|---------3-5---||


Tablature Legend
----------------
 h   - hammer-on
 p   - pull-off
 b   - bend
 r   - bend release (if no number after the r, then release immediately)
 /\  - slide into or out of (from/to "nowhere")
 s   - legato slide
 S   - shift slide
  - natural harmonic
[n]  - artificial harmonic
 ~   - vibrato
 PM  - palm muting
 =   - hold bend; also acts as connecting device for hammers/pulls
 <>  - volume swell (louder/softer)
 x   - on rhythm slash represents muted slash
 o   - on rhythm slash represents single note slash

Misc Legend
-----------
 |  - bar
||  - double bar
||o - repeat start
o|| - repeat end
*|  - double bar (ending)
 :  - bar (freetime)
 $  - Segno
 &  - Coda
Comments