6 Cycle Mind - Sige Chords & Tabs

 

Sige Chords & Tabs

6 Cycle Mind Chords & Tabs

Version: 1 Type: Tab 0 ratings
1 star 2 stars 3 stars 4 stars 5 stars
comments

Sige Tab

Intro of Sige by 6 cycles of mind..
Hi kinapa ko lang to this is aivan monceller again from 3-compassion... wla ako Makita
tabs sa net eh... haha madali lang naman... haha.. 


[ Tab from: http://www.guitartabs.cc/tabs/0-9/6_cycle_mind/sige_tab.html ]
E----------------------------------------+
B----------------------------------------+
G----------------------------------------+
D----------------------------------------+
A--0--3-----------0--7--6--5--3[5]------+
E--------5--3--5-------------------------+

E----------------------------------------+
B----------------------------------------+
G----------------------------------------+
D----------------------------------------+
A--0--3-----------0--7--6--5--3[0]------+
E--------5--3--5-------------------------+
Comments