6 Cycle Mind - Sige Chords & Tabs

 

Sige Chords & Tabs

6 Cycle Mind Chords & Tabs

Version: 2 Type: Chords 0 ratings
1 star 2 stars 3 stars 4 stars 5 stars
comments

Sige Chords

   
Sige by 6 Cycle Mind
Tabbed By: dixman
E-mail: dixman142003@yahoo.com

Intro:

E|---------------------------------------------|
B|---------------------------------------------|
G|----------------------------9--8--7--5--7----|   x2
D|--10----7----5----5---------9--8--7--5--7----|
A|--10----7----5----5---------7--6--5--3--5----|
E|--8-----5----3----7--------------------------|

E|---------------------------------------------|
B|---------------------------------------------|
G|---------------------------------------------|   
D|--10----7----5----5--------------------------|
A|--10----7----5----5--------------------------|
E|--8-----5----3----7--------------------------|

[ Tab from: http://www.guitartabs.cc/tabs/0-9/6_cycle_mind/sige_crd_ver_2.html ]
(verse1)
  C	Em	
Sige, 'pag kasama ka naman
       Am       	  F
Kitang kita ko ang ating kasiyahan	      (down strum)
  C	Em
Sige, 'wag na nating pigilan
       Am		  F
At 'di magtatagal tayo ay liligaya


(ref.)
Em   Am	           Em    Am
Okay lang naman ang ating usapan
         Em   Am	       F
Hindi na lang babalikan ang nakaraan
      F
Ang nakaraan


(chorus)
C	Em
Ayos lang basta't kasama
Am	         F
Konting alak lang kahit walang pulutan
C	Em
Ang minsan naaalala
Am	         F
'Di magtatagal tayo ay liligaya

(verse2)

Sige, pagpatuloy niyo na lang
Unti unting lunurin sa kasiyahan	(same as verse1)
Sige, pagpasensyahan na lang
Mga pumipigil sa ating ligaya

(ref.)
(chorus)
(solo)
(ref.)
(chorusx2)
(outro[same as intro])

*just listen to the song to figure out the right strumming, it's easy!
*still working on the solo guys! Just email me for comments! Pls vote! Tnx!
~dixman142003@yahoo.com~
Comments