6 Cycle Mind - Sige Chords & Tabs

 

Sige Chords & Tabs

6 Cycle Mind Chords & Tabs

Version: 2 Type: Bass Tab 0 ratings
1 star 2 stars 3 stars 4 stars 5 stars
comments

Sige Bass Tab

sige
6 cycle mind
bass tab
standard tuning

intro/outro:
|-------------------------------|-----------------------------|
|-------------------------------|-----------------------------|
|-3------------5-6-7-6-5---3--5-|-3------------7-6-5----------|
|----5--3--5--------------------|----5--3--5-----------3--5---|

verses:
|-----------------|-----------------|-----------------|-------------------|
|-----------------|-----------------|-----------------|-------------------|
|-3-3-3-3-3-3-3-3-|-----------------|-----------------|-------------------|
|-----------------|-3-3-3-3-3-3-3-3-|-1-1-1-1-1-1-1-1-|-3-3-3-3-3-3-3-3---|
[ Tab from: http://www.guitartabs.cc/tabs/0-9/6_cycle_mind/sige_btab_ver_2.html ]
pre-choruse:
=========3x================THEN
|--------------------------|---------------------------------------|
|--------------------------|---------------------------------------|
|--------------------------|---------------------------------------|
|-0-0-0-0-0-0--1-1-1-1-1-1-|-1-1-1-1-1-1-1-1--3-3-3-3-3-3-3-3------|

chorus:
|-----------------|-----------------|---------------------------------|
|-----------------|-----------------|---------------------------------|
|-3-3-3-3-3-3-3-3-|-----------------|---------------------------------|
|-----------------|-3-3-3-3-3-3-3-3-|-1-stop--1-1-1-1--3-3-3-3-3------|

|-----------------|-----------------|-----------------|-------------------|
|-----------------|-----------------|-----------------|-------------------|
|-3-3-3-3-3-3-3-3-|-----------------|-----------------|-------------------|
|-----------------|-3-3-3-3-3-3-3-3-|-1-1-1-1-1-1-1-1-|-3-3-3-3-3-3-3-3---|

kayo na bahala sa sequence.
Comments