6 Cycle Mind - Sige Chords & Tabs

 

Sige Chords & Tabs

6 Cycle Mind Chords & Tabs

Version: 1 Type: Bass Tab 0 ratings
1 star 2 stars 3 stars 4 stars 5 stars
comments

Sige Bass Tab

   
band: 6 cycle mind
song: sige


intro

G|-----------------------|
D|-----------------------|
A|-3-------3-57-6-5-3/5--|
E|---5-3-5---------------|


G|-----------------------|
D|-----------------------|
A|-3--------7-5-3--------|
E|---5-3-5--------3/5----|


verse

slow..
G|-------------------------|
D|-------------------------|
A|-3-3-3-2-2-2-0-0-0-8-8-8-|
E|-------------------------|

fast..

G|------------------------------|
D|------------------------------|
A|-333333-222222-000000-8888888-|
E|------------------------------|


preverse/refrain

okey lang naman..
G|-----------------------------|
D|-----------------------------|
A|--------000000---------------|(4x)
E|-000000----------------------|
[ Tab from: http://www.guitartabs.cc/tabs/0-9/6_cycle_mind/sige_btab.html ]
 ang nakaraan.. ang nakaraan..
G|-----------------------|
D|-----------------------|
A|-888888----------------|
E|--------333333---------|


chorus
ayos lang basta't kasama..(pause) at (konting alak lng..)
G|---------------------------------|
D|---------------------------------|
A|-333333-222222-0(pause)0-8888888-|
E|---------------------------------|


at minsan ay na aalala..
G|------------------------------|
D|------------------------------|
A|-333333-222222-000000-8888888-|
E|------------------------------|

*repeat verse(fast)
*refrain
*chorus
*intro


98% sure pro maganda yan.. enjoy.. kng gusto nyo lagyan ng slide after the slow part
in verse.. kng may mali. e-mail nyo ko.. rafisilerio_21@yahoo.com..

hi sa mga ka banda ko..!!! hehe.. ** orchestra***
hi kay claudine..
Comments