6 Cycle Mind - Sandalan Chords & Tabs

 

Sandalan Chords & Tabs

6 Cycle Mind Chords & Tabs

Version: 3 Type: Tab

Sandalan Tab

   
tab by:jasper chua



[standard tuning]

intro:

|--------------------9~-------------------|
|-6h7-[several x to]----------------------|
|-----------------------------------------|
|-----------------------------------------|
|-----------------------------------------|
|-----------------------------------------|

sabay pasok to

|----------------------|
|----------------------|
|-----4----------------|     (G-Am-Bm-Am)
|-5-7-4-7--------------|   pwede rin cguro basic chords pero kau na bhala!
|-5-7-2-7--------------|
|-3-5---5--------------|

verse 1:(chords used:G-Am-Bm-Am)

|-----3~-------------------------|
|---3----------------------------|  G to..
|--------------------------------|
|-0------------------------------|
|--------------------------------|
|--------------------------------|

sbay pasok tong lead:

|--------------------9~-------------------|
|-6h7-------------------------------------|
|-----------------------------------------|
|-----------------------------------------|
|-----------------------------------------|
|-----------------------------------------|

pre-chorus:

|--------------|
|--------------|
|-9------------|
|-9--7---------|
|-7--7---------|
|----5---------|

lead:

|-------------------------|
|-5/10--5/10-10/13--5/10--|
|-------------------------|
|-------------------------|
|-------------------------|
|-------------------------|

then:

|-------------------|
|-------------------|
|-5--7--------------|
|-5--7--------------|
|-3--5--------------|
|-------------------|

chorus:
[ Tab from: http://www.guitartabs.cc/tabs/0-9/6_cycle_mind/sandalan_tab_ver_3.html ]
|----------------------|
|----------------------|
|-----4----------------|     
|-5-7-4-7--------------|   
|-5-7-2-7--------------|
|-3-5---5--------------|

interlude:

|--------------------9~-------------------|
|-6h7-------------------------------------|
|-----------------------------------------|
|-----------------------------------------|
|-----------------------------------------|
|-----------------------------------------|

verse 2:
[same as verse 1]

{break}

chorus:

|----------------------|
|----------------------|
|-----4----------------|     
|-5-7-4-7--------------|   
|-5-7-2-7--------------|
|-3-5---5--------------|

sa adlib.....sundin nyo nlng ibang version..lau ng kapa ko...

gwin nyo chorus chords..

chorus:

|----------------------|
|----------------------|
|-----4----------------|     
|-5-7-4-7--------------|   
|-5-7-2-7--------------|
|-3-5---5--------------|

tpos may gn2 pgktpos:

|--------------------------------6-------|
|-6h7-6h7-6h7-7----6h7-6h7-6h7-7---------|
|---------------6------------------------|
|----------------------------------------|
|----------------------------------------|
|----------------------------------------|

tpos.. ung outro:

|--------------------9~-------------------|
|-6h7-------------------------------------|
|-----------------------------------------|
|-----------------------------------------|
|-----------------------------------------|
|-----------------------------------------|

end with:

|-----------------------------|
|-----------------------------|
|-----------------------------|
|-5---------------------------|
|-5---------------------------|
|-3---------------------------|



add nyo ko sa friendster:
walalang_00@yahoo.com.ph