6 Cycle Mind - Pa Ba Chords & Tabs

 

Pa Ba Chords & Tabs

6 Cycle Mind Chords & Tabs

Version: 7 Type: Tab 0 ratings
1 star 2 stars 3 stars 4 stars 5 stars
comments

Pa Ba Tab

   
Bibigay ko na lang 'yung lead tabs
kasi madami nang may chords. paki-rate din
'yung intro [ver 3] tab ko nito  :P

95% sure ako dito...

Verse:
E--------------------------------------|
B-3s5-3--7-7-7-7-7-7-5h7-5h7-5h7-5h7---|
G------------------------------------7-|
D--------------------------------------|
A--------------------------------------|
E--------------------------------------|
'Eto 'yung usual na ginagamit sa verse
ta's medyo varied yung iba except ito:

E-------------------7-7-7-7/9-9-9-9-|
B-3s5-3--7-7-7-7-7------------------|
G-----------------------------------|
D-----------------------------------|
A-----------------------------------|
E-----------------------------------|
   [...tinatangay ako ng hangin!]

Chorus:
E-----------|
B---3s5-3---|
G-0---------|
D-----------|
A-----------|
E-----------|
Maririnig mo 'to pagkatapos
ng [...alam kong gawin...] at [...ibang paraan?...]


Solo:
E-------------15----------------|
B-------15-------15-------------|
G-14/16----16-------------------|
D-------------------14/16-14----|
A----------------------------14-|
E-------------------------------|
[ Tab from: http://www.guitartabs.cc/tabs/0-9/6_cycle_mind/pa_ba_tab_ver_7.html ]
E-------------------------------------15--------|
B-------------15-14-------------17-15-------15--|
G----------14-------14-16----14----------16-----|
D----14-12----------------14--------------------|
A-14--------------------------------------------|
E-----------------------------------------------|

E-17-15-14-14h15p14-----------------|
B-------------------17p15-17/19-----|
G-------------------------------14~-|
D-----------------------------------|
A-----------------------------------|
E-----------------------------------|

E----------------------------------|
B----------------------------------|
G----------------------------------|
D-16\14-12----12----------12pm-12~-|
A----------14----12-12h14----------|
E----------------------------------|

E----------------------------------------|
B-12(7x)-14(7x)-14/15-15(5x)-15pm-17(5x)-|
G----------------------------------------|
D----------------------------------------|
A----------------------------------------|
E----------------------------------------|

E------------------------------|
B-17b19-17b19r17-15-15h17-15~--|
G------------------------------|
D------------------------------|
A------------------------------|
E------------------------------|

E-----------------------------------------------|
B-15p14-----14------------------------------15~-|
G--------16----16--14----16-14-----14-14h16-----|
D---------------------16--------14--------------|
A-----------------------------------------------|
E-----------------------------------------------|

/ = slide up
\ = slide down
h = hammer-on
p = pull-off
pm = pick mute :) (parang ipapatong mo lang sa string 'yung pick)
b,r = bend to, return
~ = vibrato
Comments