6 Cycle Mind - Pa Ba Chords & Tabs

 

Pa Ba Chords & Tabs

6 Cycle Mind Chords & Tabs

Version: 6 Type: Tab 0 ratings
1 star 2 stars 3 stars 4 stars 5 stars
comments

Pa Ba Tab

Haha! Intro na naman! 'katamad kasi  gawin 'yung buong song :P

Paba

E-------------17-----------------------------------|
B-14h15-14h15-----14-15----------------------------|
G-----------------------14----------14-------------|
D--------------------------14-14/16----------------|
A--------------------------------------------------|
E--------------------------------------------------|
[ Tab from: http://www.guitartabs.cc/tabs/0-9/6_cycle_mind/pa_ba_tab_ver_6.html ]
E-------------17------------------------------------|
B-14h15-14h15-----15br-14---------------------------|
G-------------------------14------------------------|
D----------------------------16~--------------------|
A---------------------------------------------------|    Legend:
E---------------------------------------------------|    h=hammer-on
							/=slide up
E-------------17-----------------------------------|	br=bend up, return
B-14h15-14h15-----14-15----------------------------|	~=vibrato
G-----------------------14----------14-------------|
D--------------------------14-14/16----------------|
A--------------------------------------------------|
E--------------------------------------------------|

E-------------17--19-17~---------------------------|
B-14h15-14h15--------------------------------------|
G--------------------------------------------------|
D--------------------------------------------------|
A--------------------------------------------------|
E--------------------------------------------------|
Comments