6 Cycle Mind - Pa Ba Chords & Tabs

 

Pa Ba Chords & Tabs

6 Cycle Mind Chords & Tabs

Version: 1 Type: Tab 0 ratings
1 star 2 stars 3 stars 4 stars 5 stars
comments

Pa Ba Tab

Pa Ba
6Cycle Mind
tabbed by:sherwin21

Intro:

e|----10-9-10-10/12^-10-9-----------9h10-9h10-10/12^-10-9-----------|
B|--9---------------------10------9-----------------------10--------|
G|---------------------------9h10----------------------------9h10---|
D|------------------------------------------------------------------|
A|------------------------------------------------------------------|
E|------------------------------------------------------------------|
[ Tab from: http://www.guitartabs.cc/tabs/0-9/6_cycle_mind/pa_ba_tab.html ]
e|-9h10-9h10-10/12^-10-9----------9h10-9h10-10/12-12/14-12~---------|
B|-----------------------10-----9-----------------------------------|
G|--------------------------9h10------------------------------------|
D|------------------------------------------------------------------|
A|------------------------------------------------------------------|
E|------------------------------------------------------------------|

h-hammer
~-vibrato
^-let ring

that's all
add nyo me sa friendster...slash_clubdredd@yahoo.com
Comments