6 Cycle Mind - Nalilito Chords & Tabs

 

Nalilito Chords & Tabs

6 Cycle Mind Chords & Tabs

Version: 1 Type: Tab 0 ratings
1 star 2 stars 3 stars 4 stars 5 stars
comments

Nalilito Tab

   
Nalilito
6Cycle Mind
Permission to Shine
Tabbed by: Sherwin21™

Intro

Lead

e----------------------------15-13------------|
b-13--13-13/15--13--13-13/15------15-13-13/15-|
g---12------------12--------------------------|
d---------------------------------------------|
a---------------------------------------------|
E---------------------------------------------|

Intro: Bb-C-G (6x)

Verse 1:
            G        F#/G
Hanggang dito na lamang
     C              G
Ang kaya kong unawain
          G           F#/G
Kung paano, di malaman
   C                 G
Malabo nang maiparating
[ Tab from: http://www.guitartabs.cc/tabs/0-9/6_cycle_mind/nalilito_tab.html ]
Chorus:
   G              F#/G     C        G
Nalilito, nalilito ang aking isipan
    Bb       C        G
Hindi ko malaman kung bakit
  G                 F#/G        C        G
Nahihirapan, nahihirapan ang aking damdamin
Bb       C             G Bb-C-G, Bb-C-G
Di ko kayang tanngapin

Verse 2: (do Verse 1 chords)
Umaapaw na ang luha
Aagos sa isang sandali
Kung paano pipigilan,
Tanong ko sayo'y sagutin

(Repeat Chorus)

Solo
Interlude: G-F#/G-C-G

e--3---5---8--8-7---------------|
b----------------8--6--8--6-----|
g-------------------------------|
d-------------------------------|  2X
a-------------------------------|
E-------------------------------|

(Repeat Chorus 2x)

Verse 3:
  G               F#/G
Paalam na kaibigan
     C                  G
Ito na ang huling sandali
          G           F#/G
Kung paano malilimutan
  C            G
Paalam na sa sandali

(Do Chorus chords and fade)

Chords:
  Bb - x13331
  C  - x32033
  G  - 320033
F#/G - 200033

That's all!!! add nyo me sa friendster. slash_clubdredd@yahoo.com
                                                 thanx™
Comments