6 Cycle Mind - Fly Chords & Tabs

 

Fly Chords & Tabs

6 Cycle Mind Chords & Tabs

Version: 2 Type: Tab 0 ratings
1 star 2 stars 3 stars 4 stars 5 stars
comments

Fly Tab

Ang ganda pakinggan ng solo at ng kanta... :P

E---------------------------------5-4-----------------------|
B-----5-7-7/9------5-7/9-7------5-----7------5--------------|
G-4h6----------4h6----------4h6----------4h6---6-4-6--------|
D----------------------------------------------------6-4-6-6|
A-----------------------------------------------------------|
E-----------------------------------------------------------|

E--------------------------------------------|
B--------------------------------------------|
G-8h9-9-8h9-9-8h9-9-8h9-9-8h9-9--------------|
D--------------------------------------------|
A--------------------------------------------|
E--------------------------------------------|
[ Tab from: http://www.guitartabs.cc/tabs/0-9/6_cycle_mind/fly_tab_ver_2.html ]
E-------------------------------------------------|
B-----------9------10------9----------------------|
G-9-11-9-9----9-9-----9-9----9-9--11p9-9-9--------| [Parang 'yung sa 'Sige' 
D-------------------------------------------------|  solo 'di ba?]
A-------------------------------------------------|
E-------------------------------------------------|

E--------------------------------------------|
B--------------------------------------------|
G-8h9-9-8h9-9-8h9-9-8h9-9-8h9-9--------------|
D--------------------------------------------|
A--------------------------------------------|
E--------------------------------------------|

E----------------------------------------------|
B-----------9------10------9-------------------|
G-9-11-9-9----9-9-----9-9-----11h13p11-9-------|
D----------------------------------------------|
A----------------------------------------------|
E----------------------------------------------|
Comments