6 Cycle Mind - Biglaan Chords & Tabs

 

Biglaan Chords & Tabs

6 Cycle Mind Chords & Tabs

Version: 2 Type: Bass Tab 0 ratings
1 star 2 stars 3 stars 4 stars 5 stars
comments

Biglaan Bass Tab

title:BIGLAAN  			
by:(6 cycle mind)
tabbed by:Chris Rafael a.k.a. wala lang..

....ito po ang 1st time ko na gimawa ng isang tab... sana magustuhan nio at paki rate n lng..

4 string bass guitar

bass entrance (nandito nakatatak pa rin s isip ko....)

*verse: repeat 4x (except on the 1st verse--->2x lang sa 1st verse kasi sa 2nd stanza papasok ang bass.)
G|---------------------------------|
D|---------------------------------|
A|-------------------------3---3---| 
E|---3---3-2---2-------3h5---------|

*refrain: (kay bilis...)
[ Tab from: http://www.guitartabs.cc/tabs/0-9/6_cycle_mind/biglaan_btab_ver_2.html ]
G|----------------------------------------|
D|-------5h7-5-------5h7-5--------5h7-5---|
A|--0-5---------0-3---------0-5-----------|(repeat twice)
E|----------------------------------------|

*chorus: (di ko man lamang nalaman...)

G|-------------------------------------------|
D|---------5------------5--------------------|
A|------3h5----------3h5------3~~~--3~~~-----| (repeat twice)
E|---3----------3-2---------3----------------|

the part (di ako sanay sa biglaan...)

G|------------------------------------|
D|------------------------------------|
A|--------------------------5-5-5-----|
E|----5~~~---3~~~-----5~~~------------|

*repeat verse

*pakinggan niyo na lang yung kanta para sa timing dahil yan na yung lahat...

kung may mali man dito...i e-mail niyo na lang ako akum_3@yahoo.com ok?!?!

MGA KABABAYAN KONG PINOY... SUPORTAHAN PO NATIN ANG MGA BANDANG PINOY!!!
Comments