6 Cycle Mind - Biglaan Chords & Tabs

 

Biglaan Chords & Tabs

6 Cycle Mind Chords & Tabs

Version: 1 Type: Bass Tab 0 ratings
1 star 2 stars 3 stars 4 stars 5 stars
comments

Biglaan Bass Tab

bass enters at-
kay bilis
-2-4-3/4-2-|
-----------|
-----------|
-----------|

bat umalis
-2-4-3/4-2-|
-----------|
-----------|
-----------|

nakaka-miss....nabigla lang..
-2-4-3/4-2-|
-----------|
-----------|
-----------|
chorus:
-333333333333------------333333333-------------|
--------------33333333333---------333333333333-|
-----------------------------------------------|
-----------------------------------------------|

di ako sanay sa biglaan
---------3-|
-1---------|
-----------|
-----------|

unti-unti na lamang sanang nawala
---------333333-|
-1--------------|
----------------|
----------------|

fill:
-333333333333------------333333333-------------|
--------------33333333333---------333333333333-|
-----------------------------------------------|
-----------------------------------------------|

verse 2:
-3-3-3-3-3-3-3-3-3-3-3-------------------|
-----------------------3-3-3-3-3-3-3-3-3-|
-----------------------------------------|
-----------------------------------------|
[ Tab from: http://www.guitartabs.cc/tabs/0-9/6_cycle_mind/biglaan_btab.html ]
kay bilis
--------------|
--1--1--1-333-|
--------------|
--------------|

bat umalis
--------------|
--1--1--1-333-|
--------------|
--------------|

nakakamiss...nabigla lang..
--------------|
--1--1--1-333-|
--------------|
--------------|

repeat chorus

di ako sanay sa biglaan
---------3-|
-1---------|
-----------|
-----------|

unti-unti na lamang sanang nawala
---------333333-|
-1--------------|
----------------|
----------------|

while guitar solo
-333333333333------------333333333-------------|
--------------33333333333---------333333333333-|
-----------------------------------------------|
-----------------------------------------------|

di ako sanay sa biglaan
---------3-|
-1---------|
-----------|
-----------|

unti-unti na lamang sanang nawala
---------3333333333-|
-1------------------|
--------------------|
--------------------|

repeat chorus

ohhhhohhhhhohhhhh
-333333333333------------333333333-------------|
--------------33333333333---------333333333333-|
-----------------------------------------------|
-----------------------------------------------|


end-
pls. rate for comments email me at sikarlako@yahoo.com
Comments