6 Cycle Mind - Alapaap Chords & Tabs

 

Alapaap Chords & Tabs

6 Cycle Mind Chords & Tabs

Version: 1 Type: Tab

Alapaap Tab

   
----------------------------------------------------------------------------
			     ALAPAAP - 6 Cycled Mind
----------------------------------------------------------------------------
Tabbed by: Aaron Ulysses Lorenzo
Email: aron_22chocnut@yahoo.com

Tuning: Standard

SOLO

e|-------------------------------------------------------------------------|
B|-----------------------6/8-6---------------------------------------8-----|
G|-------------9-7----7---------9-7-----------------------7-7------7-------|
D|--------7h8------10---------------10-8-7--------------7-----10-7---------|
A|-/8-10-----------------------------------10---/888-10--------------------|
E|-------------------------------------------------------------------------|

NOTE : Listen to the timing.
[ Tab from: http://www.guitartabs.cc/tabs/0-9/6_cycle_mind/alapaap_tab.html ]
| /  slide up
| \  slide down
| h  hammer-on
| p  pull-off
| ~  vibrato
| +  harmonic
| x  Mute note
===============================================================================

GREETINGS !!!!

To my band Pink Knee Poles (PKP) Jepoy Lucero, Smith Soriano, Jonas Aguda, Aaron 
Special thanks to Angellie Archangel (keyboardist)

To my ka-berks - madami eh alam nyo na un kung sino kau and BATCH 95

To my family and love ones

GReetings To all Tambayan Videoke BAR valued customers and resident bands like DHASH, 
UNEXPECTED, ABNOYZ, NAKED SPINX, SCRATCH PEPPER, TARBLUES, SUPRE ANIMA

To all Nextfocus POC Employees and Special Mention to Nextfocus Phils NOC
Sir Rommel, Gil, Ogie Villaver, Robert John "Pottie" Gabriel, Anthony "Monchie" Papiona 
Renegades from LBNI

MABUHAY ANG PINOY BANDS