69 Eyes - Dance Damour Chords & Tabs

 

Dance Damour Chords & Tabs

69 Eyes Chords & Tabs

Version: 1 Type: Bass Tab 0 ratings
1 star 2 stars 3 stars 4 stars 5 stars
comments

Dance Damour Bass Tab

THE 69 EYES
DANCE D'AMOUR
tabbed by meelis saard


TUNED NORMAL (EADG)
(NOTE: C# [A-4-] is played everytime an octave lower)

I'M NOT 100% SURE ABOUT THE CHORUS, BUT I'M QUITE SURE THAT IT'S RIGHT!

x = mute

INTRO
|-----------------------------------------------------------------
|-----------------------------------------------------------------
|-4-4-4-4-4-4-4-4-4-4-4-4-4-4-------------------------------------
|-----------------------------0-2-4-4-4-4-4-4-4-4-4-4-4-4-4-4-4-4-

------------------------------------------------------------------
------------------------------------------------------------------
------------------------------------------------------------------
-0-0-0-0-0-0-0-0-0-0-0-0-0-0-0-0-2-2-2-2-2-2-2-2-2-2-2-2-2-2-2-4\-

---------------------------------|
---------------------------------|
-4-4-4-4-4-4-4-4-----------------|
-----------------0-0-0-0-2-2-2-2-|

VERSE
|-----------------------------------------------------------------
|-----------------------------------------------------------------
|-----------------------------------------------------------------
|-4-4-4-4-4-4-4-4-4-4-4-4-4-4-4-4-0-0-0-0-0-0-0-0-0-0-0-0-0-0-0-0-

-----------------------------------------------------------------
-----------------------------------------------------------------
---------------------------------4-4-4-4-4-4-4-4-4-4-------------
-2-2-2-2-2-2-2-2-2-2-2-2-2-2-2-2---------------------0-0-2-2-3-3-

-----------------------------------------------------------------
-----------------------------------------------------------------
-----------------------------------------------------------------
-4-4-4-4-4-4-4-4-4-4-4-4-4-4-4-4-0-0-0-0-0-0-0-0-0-0-0-0-0-0-0-0-

-----------------------------------------------------------------|
-----------------------------------------------------------------|
-----------------------------------------------------------------|
-2-2-2-2-2-2-2-2-2-2-2-2-2-2-2-2-0-0-0-0-0-0-0-0-2-2-2-2-2-2-2-2-|
[ Tab from: http://www.guitartabs.cc/tabs/0-9/69_eyes/dance_damour_btab.html ]
CHORUS
|-------------------------------------------------------------------|
|-------------------------------------------------------------------|
|-----------------------4-4-4-4-4-4-----------------4-4-4-----------|
|-5-5-5-\0--0-0-0-2-2-2-------------5-5-5-\0--0-0-0-------0-0-2-2-2-| x2

TO VERSE
|------------------------------------------------------------------
|------------------------------------------------------------------
|------------------------------------------------------------------
|-4-4-4-4-4-4-4-4-4-4-4-4-4-4-4-4-\0-0-0-0-0-0-0-0-0-0-0-0-0-0-0-0-

-------------------------------------------------------------------|
-------------------------------------------------------------------|
-----------------------------------4-4-4-4-4-4-4-4-----------------|
-2-2-2-2-2-2-2-2-2-2-2-2-2-2-2-4-\-----------------0-0-0-0-2-2-2-2-|

VERSE
CHORUS x4

NO NAME
|------------------------------------------------------------------
|------------------------------------------------------------------
|------------------------------------------------------------------
|-6-6-6-6-6-6-6-6-6-6-6-6-6-6-6-6-\2-2-2-2-2-2-2-2-2-2-2-2-2-2-2-2-

------------------------------------------------------------------
------------------------------------------------------------------
----------------------------------6-6-6-6-6-6-6-6-----------------
-4-4-4-4-4-4-4-4-4-4-4-4-4-4-4-6-\----------------2-2-2-2-4-4-4-4-

------------------------------------------------------------------
------------------------------------------------------------------
------------------------------------------------------------------
-6-6-6-6-6-6-6-6-6-6-6-6-6-6-6-6-\2-2-2-2-2-2-2-2-2-2-2-2-2-2-2-2-

---------------------------------------------------------------------|
---------------------------------------------------------------------|
---------------------------------------------------------------------|
-4-4-4-4-4-4-4-4-4-4-4-4-4-4-4-4-\2--2-2-2-2-2-2-2-2-4-4-4-4-4-4-4-4-|

CHORUS x4

END
|-----------------------------------------------------------------
|-----------------------------------------------------------------
|-----------------------------------------------------------------
|-2-2-2-2-4-4-4-4-6-6-6-6-6-6-6-6-6-6-6-6-6-6-6-6-6-6-6-6-6-6-6-6-

------------------------------------------------------------------|
------------------------------------------------------------------|
------------------------------------------------------------------|
-2-2-2-2-4-4-4-4-6-6-6-6-6-6-6-6-6-6-6-6-6-6-6-6-6-6-6-6-6-6-6-6x-|
Comments