5678s - Woo Hoo Chords & Tabs

 

Woo Hoo Chords & Tabs

5678s Chords & Tabs

Version: 1 Type: Tab 0 ratings
1 star 2 stars 3 stars 4 stars 5 stars
comments

Woo Hoo Tab

------------------------------The 5.6.7.8's - WOO HOO----------------------------

www.fujiiya.com/the5678s/ These Japanese Garagecats have been around since 1987.
There sound is 80's Asian Rock meets Surfrock.

This is "Woo Hoo" by Asian 3-piece girlband The 5.6.7.8's, featured on the album
"BOMB THE TWIST" and "KILL BILL" original soundtrack.

Guitar Tab:

Intro

E-------------------------------------------------------------------------
B-------------------------------------------------------------------------
G-------------------------------------------------------------------------
D-------------------------4-5-4-----------4-5-4---------------------------
A---------------------4-7-------7-4---4-7-------4-7-----------------------
E--5555555555555555-5---------------5-------------------------------------

E-------------------------------------------------------------------------
B-------------------------------------------------------------------------
G--------------------------------------4-5-4------------------------------
D------4-5-4-----------4-5-4-------4-7-------7-4-------4-5-4--------------
A--4-7-------7-4---4-7-------7-4-5-----------------4-7-------7-4-7--------
E5---------------5-------------------------------5------------------------

E-------------------------------------------------------------------------
B-------------------------------------------------------------------------
G-------------------------------------------------------------------------
D4-5-4----------------4-5-4-----------------------------------------------
A------7-5-4------4-7-------4-7-------------------------------------------
E------------7-5----------------------------------------------------------

Chorus

E-------------------------------------------------------------------------
B-------------------------------------------------------------------------
G--------------------------------------4-5-4------------------------------
D------4-5-4-----------4-5-4-------4-7-------7-4-------4-5-4--------------
A--4-7-------7-4---4-7-------7-4-5-----------------4-7-------7-4-7--------
E5---------------5-------------------------------5------------------------

E-------------------------------------------------------------------------
B-------------------------------------------------------------------------
G-------------------------------------------------------------------------
D4-5-4----------------4-5-4-----------------------------------------------
A------7-5-4------4-7-------4-7-------------------------------------------
E------------7-5----------------------------------------------------------

Verse (Drum Solo)

E-------------------------------------------------------------------------
B-------------------------------------------------------------------------
G-------------------------------------------------------------------------
D-------------------------------------------------------------------------
A--------------5------------7----5----------------------------------------
E-5-----5-------------5----------------5----------------------------------

E-------------------------------------------------------------------------
B-------------------------------------------------------------------------
G-------------------------------------------------------------------------
D-------------------------------------------------------------------------
A--------------5------------7----5----------------------------------------
E-5-----5-------------5----------------5----------------------------------

Chorus
[ Tab from: http://www.guitartabs.cc/tabs/0-9/5678s/woo_hoo_tab.html ]
E-------------------------------------------------------------------------
B-------------------------------------------------------------------------
G--------------------------------------4-5-4------------------------------
D------4-5-4-----------4-5-4-------4-7-------7-4-------4-5-4--------------
A--4-7-------7-4---4-7-------7-4-5-----------------4-7-------7-4-7--------
E5---------------5-------------------------------5------------------------

E-------------------------------------------------------------------------
B-------------------------------------------------------------------------
G-------------------------------------------------------------------------
D4-5-4----------------4-5-4-----------------------------------------------
A------7-5-4------4-7-------4-7-------------------------------------------
E------------7-5----------------------------------------------------------

Guitar Bridge

E-------------------------------------------------------------------------
B-------------------------------------------------------------------------
G--------------------777-------------999------777-------------------------
D--777------777------777-----777-----999------777----777------------------
A--777------555------555-----777-----777------555----777------------------
E--555------555--------------555---------------------555------------------

E-------------------------------------------------------------------------
B-------------------------------------------------------------------------
G--------------------777-------------999------777-------------------------
D--777------777------777-----777-----999------777----777------------------
A--777------555------555-----777-----777------555----777------------------
E--555------555--------------555---------------------555----0--0--2--4----

Chorus

E-------------------------------------------------------------------------
B-------------------------------------------------------------------------
G--------------------------------------4-5-4------------------------------
D------4-5-4-----------4-5-4-------4-7-------7-4-------4-5-4--------------
A--4-7-------7-4---4-7-------7-4-5-----------------4-7-------7-4-7--------
E5---------------5-------------------------------5------------------------

E-------------------------------------------------------------------------
B-------------------------------------------------------------------------
G-------------------------------------------------------------------------
D4-5-4----------------4-5-4-----------------------------------------------
A------7-5-4------4-7-------4-7-------------------------------------------
E------------7-5----------------------------------------------------------

E-------------------------------------------------------------------------
B-------------------------------------------------------------------------
G--------------------------------------4-5-4------------------------------
D------4-5-4-----------4-5-4-------4-7-------7-4-------4-5-4--------------
A--4-7-------7-4---4-7-------7-4-5-----------------4-7-------7-4-7--------
E5---------------5-------------------------------5------------------------

E-------------------------------------------------------------------------
B-------------------------------------------------------------------------
G-------------------------------------------------------------------------
D4-5-4---------------777--------------------------------------------------
A------7-5-4---------777--------------------------------------------------
E------------7-5-----555--------------------------------------------------


by sully.
warthogking@hotmail.com
Comments