54 40 - Ocean Pearl Chords & Tabs

 

Ocean Pearl Chords & Tabs

54 40 Chords & Tabs

Version: 2 Type: Tab 0 ratings
1 star 2 stars 3 stars 4 stars 5 stars
comments

Ocean Pearl Tab

Intro/Verses

E--------------------------------------------|
B--------------------------------------------|
G--------------------------------------------|
D--------------------------------------------|
A----------5--------5------------------------|
E---0-5-7---5-5-7---0------------------------|
[ Tab from: http://www.guitartabs.cc/tabs/0-9/54_40/ocean_pearl_tab_ver_2.html ]

"O...cean... Pearl"
E--------------------------------------------|
B--------------------------------------------|
G--------------------------------------------|
D--------------------------------------------|
A-----------------------2-2-2-2-2-2-2-2------|
E---3-3-3-3-3-3-3-3--------------------------|
Comments