54-40 - Easy To Love Chords & Tabs

 

Easy To Love Chords & Tabs

54-40 Chords & Tabs

Version: 1 Type: Tab 0 ratings
1 star 2 stars 3 stars 4 stars 5 stars
comments

Easy To Love Tab

Song: Easy to Love
Band: 54-40
Tuning: Standard

Verse
e-------------------------------------------------------|
B-------------------------------------------------------|
G-----------2----2--------------------------------------|
D-2----5----2----2----2---------------------------------|
A-2----5----0----0----2---------------------------------|
E-0----3--------------0---------------------------------|

Chorus

e--0---0---0----3--3---0--0---0--0--3---0---------------|
B--2---2---2----3--3---0--0---2--2--3---0---------------|
G--2---2---2----0--0---1--1---2--2--0---1---------------|
D--2---2---2----0--0---2--2---2--2--0---2---------2-----|
A--0---0---0----2--2---2--2---0--0--2---2---------------|
E---------------3--3---0--0---------3---0---0-3p0-------|

e--0--0---3---0---2---0--3--0---------------------------|
B--2--2---3---0---3---2--3--0---------------------------|
G--2--2---0---1---2---2--0--1---------------------------|
D--2--2---0---2---0---2--0--2---------------------------|
A--0--0---2---2-------0--2--2---------------------------|
E---------3---0----------3--0---------------------------|

The solo i don't think is exactly perfect, but it's pretty darn close.

e-12-12-12-12-----------15-15-15-15---12--12-----------|
B--------------15--12--------------------------15-12---|
G------------------------------------------------------|
D------------------------------------------------------|
A------------------------------------------------------|
E------------------------------------------------------|
[ Tab from: http://www.guitartabs.cc/tabs/0-9/54_40/easy_to_love_tab.html ]
e-------------------15--12-----------------------------|
B------------------------------------------------------|
G--14b--14--12-----------------------12----------14----|
D---------------14-----------12--14------14--12--------|
A------------------------------------------------------|
E------------------------------------------------------|

e---------------------------------12----------15-12-----|
B---------12----------15-----------------------------15-|
G-------------------------------------------------------|
D--12-14-------12-14-------12-14-------12-14------------|
A-------------------------------------------------------|
E-------------------------------------------------------|

e--17v--------17-------17---------------------19v------|
B--------17b------17b------17b--17---15--13------------|
G------------------------------------------------------|
D------------------------------------------------------|
A------------------------------------------------------|
E------------------------------------------------------|

well the bridge im not sure but the last part goes
e------------------------------------------------------|
B------------------------------------------------------|
G------------------------------------------------------|
D--2--2--5--2----------2-------------------------------|
A--2--2--5--2------------------------------------------|
E--0--0--3--0---0-3p0----------------------------------|

Well if you have any questions, comments suggestions,
email me at shaunnyfairplay@hotmail.com
make the subject easy to love so I'll know what you're
talking about.
Comments