50 Cent - Wanksta Chords & Tabs

 

Wanksta Chords & Tabs

50 Cent Chords & Tabs

Version: 2 Type: Tab 0 ratings
1 star 2 stars 3 stars 4 stars 5 stars
comments

Wanksta Tab

'Wanksta' by '50 Cent'

`Tabbed by Stephen Dadaian



Standard Tuning

[ Tab from: http://www.guitartabs.cc/tabs/0-9/50_cent/wanksta_tab_ver_2.html ]
---------------------------------------------
---------------------------------------------
---------12-----12---10----------------------
--10--13-----13----------10------------------
---------------------------------------------
---------------------------------------------


---------------------------------------------
---------------------------------------------
---------12-----12------10-------------------
--10--13-----13-----10-----------------------
---------------------------------------------
---------------------------------------------

Any questions/commments email me at:
Tequilla503@AOL.com
Comments