50 Cent - Pimp Chords & Tabs

 

Pimp Chords & Tabs

50 Cent Chords & Tabs

Version: 1 Type: Tab 3 ratings
1 star 2 stars 3 stars 4 stars 5 stars
comments

Pimp Tab

50 Cent - P.i.m.p.
Submitted By: Nightwalker
EMail: nightwalker903@hotmail.com


e|-----------------------------|------------------------------------|
B|-----------------------------|------------------------------------|
G|--8--8--11--11--11--11--8----|--8--8--8--11--11--11--11--8-8--10--|
D|---------------------------8-|------------------------------------|
A|-----------------------------|------------------------------------|
E|-----------------------------|------------------------------------|
[ Tab from: http://www.guitartabs.cc/tabs/0-9/50_cent/pimp_tab.html ]
e|-------------------------------------|-------------------------------------|
B|-------------------------------------|-------------------------------------|
G|--10--10---13--13--13---13---10------|--10--10---13--13--13---13---10---8--|
D|---------------------------------12--|-------------------------------------|
A|-------------------------------------|-------------------------------------|
E|-------------------------------------|-------------------------------------|

NOTE: Play each note to match the lyrics in the chorus 
	

Comments