50 Cent - Amusment Park Chords & Tabs

 

50 Cent Chords & Tabs

Version: 1 Type: Bass Tab 0 ratings
1 star 2 stars 3 stars 4 stars 5 stars
comments

Amusment Park Bass Tab

----------------------------------------------------------------------------
                             Amusment Park  50 Cent 
----------------------------------------------------------------------------

Tabbed By : The Roots Radish
e-mail: justin.takayama@gmail.com

Tuning:Standard

Intro:			
G|---10---------------|
D|-----11-8-----------|
A|----------8---------|
E|------------9-8-6-5-|

[ Tab from: http://www.guitartabs.cc/tabs/0-9/50_cent/amusment_park_btab.html ]
Verse:
G|----------------------------------------------1011-11------|
D|----------7-7----------7-7----------12-12--8-8--------8-8--|
A|---/8-----------/8-----------/8-------------8--------------|
E|--6--6--6-5-5--6--6--6-5-5--6--6--6-10-10-------------6-6--|

There's a couple points in the song when the intro part 
gets repeated at the end of the verse.  The verse ending
alternates throughout the song.

============================================================================
Comments