50 Cent - 21 Questions Chords & Tabs

 

21 Questions Chords & Tabs

50 Cent Chords & Tabs

Version: 4 Type: Tab 0 ratings
1 star 2 stars 3 stars 4 stars 5 stars
comments

21 Questions Tab

REPEATS THROUGH THE WHOLE SONG
[ Tab from: http://www.guitartabs.cc/tabs/0-9/50_cent/21_questions_tab_ver_4.html ]
E|---------------------------11------|
B|-----------------12--12-14---------|
G|-----11-13-11-13-------------------| 3 TIMES FIRST
D|-----------------------------------|
A|-----------------------------------|
E|-----------------------------------|

E|----------------------------11-----|
B|-----12-14-12-14--12--12-14--------|
G|-----------------------------------| THEN THIS
D|-----------------------------------|
A|-----------------------------------|
E|-----------------------------------|
Comments