4 Skins - Sorry Chords & Tabs

 

Sorry Chords & Tabs

4 Skins Chords & Tabs

Version: 1 Type: Bass Tab 0 ratings
1 star 2 stars 3 stars 4 stars 5 stars
comments

Sorry Bass Tab

G -------------------------------|
D -------------------------------|
A --------2-222---3-333---5-555--|
E -3--333------------------------|

G ------------------------------|
D ------------------------------|
A ------2-222---3-333---00--0---|
E 3-333--------------------3----|

[ Tab from: http://www.guitartabs.cc/tabs/0-9/4_skins/sorry_btab.html ]
  "shout it out! shout it out! dont
  give a dam cuz im proud of wot i am"
G ------------------------------------|
D ------------------------------------|
A -33-2-----33-2------5-555-555-555-5-|
E ------3-------3---------------------|

G -------------------|
D -------------------|
A -33-2-----33-2-----|
E ------3-------3----|

G ----------------------------------|
D ----------------------------------|
A -0-000-00--33333--5-555-555-555-5-|
E ----------------------------------|

TABBED BY THE LEPRECAUN

figure out the order
Comments