4 Skins - Justice Chords & Tabs

 

Justice Chords & Tabs

4 Skins Chords & Tabs

Version: 1 Type: Tab 0 ratings
1 star 2 stars 3 stars 4 stars 5 stars
comments

Justice Tab

http://trouserpress.com/bandpages/4_SKINS.html


Band: 4-Skins
Song:Justice


tabbed by jam9383@yahoo.com


Intro/Verse
e---------------------------------------------------------------------|
B---------------------------------------------------------------------|
G-----5----------5----------------------------------------------------|
D-----5---5------5----5-----------------------------------------------|
A-----3---5------3----5-----------------------------------------------|
E---------3-----------3-----------------------------------------------|


  PM-------------------------------------------------------------------|
e----------------------------------------------------------------------|
B----------------------------------------------------------------------|
G--5-5-5-5-5-5-5-5-----------------------------------------------------|
D--5-5-5-5-5-5-5-5--5-5-5-5-5-5-5-5------------------------------------|
A--3-3-3-3-3-3-3-3--5-5-5-5-5-5-5-5------------------------------------|
E-------------------3-3-3-3-3-3-3-3------------------------------------|

Chorus
[ Tab from: http://www.guitartabs.cc/tabs/0-9/4_skins/justice_tab.html ]
e---------------------------------------------------------------------|
B---------------------------------------------------------------------|
G---------------------------------------------------------------------|
D---8--10--12--10--8--7--8---5-----3----5-----------------------------|
A---8--10--12--10--8--7--8---5-----3----5-----------------------------|
E---6--8---10--8---6--5--6---3-----1----3-----------------------------|

Riff
e---------------------------------------------------------------------|
B---------------------------------------------------------------------|
G---------------------------------------------------------------------|
D---8-7----------10---------------------------------------------------|
A--------8-10-10------------------------------------------------------|
E---------------------------------------------------------------------|

Interlude
e---------------------------------------------------------------------|
B---------------------------------------------------------------------|
G-----5-5-5-5-5-----------5-5-5-7-9-7-5----5-5-5-5-5------------------|
D---------------5-5-5-5-5-----------------------------5-5-5-5-5-------|
A---------------------------------------------------------------------|
E---------------------------------------------------------------------|

e---------------------------------------------------------------------|
B---------------------------------------------------------------------|
G--5-5-5-5-5----------------------------------------------------------|
D------------5-5-5-3-3-3-2-3-5----------------------------------------|
A---------------------------------------------------------------------|
E---------------------------------------------------------------------|


any questions or comments contact me, please rate
Comments