4 Skins - Get Out Of My Life Chords & Tabs

 

Get Out Of My Life Chords & Tabs

4 Skins Chords & Tabs

Version: 1 Type: Tab 0 ratings
1 star 2 stars 3 stars 4 stars 5 stars
comments

Get Out Of My Life Tab

http://trouserpress.com/bandpages/4_SKINS.html


Band:4-Skins
Song:Get Out of My Life


tabbed by jam9383@yahoo.com


Intro

e---------------------------------------------------------------------|
B---------------------------------------------------------------------|
G--7---------5---------7--------5-------------------------------------|
D--7---------5---------7--------5-------------------------------------|
A--5---------3---------5--------3-------------------------------------|
E---------------------------------------------------------------------|

e---------------------------------------------------------------------|
B--12~-------10--------12-------10------------------------------------|
G---------------------------------------------------------------------|
D---------------------------------------------------------------------|
A---------------------------------------------------------------------|
E---------------------------------------------------------------------|

2nd guitar with verse
e---------------------------------------------------------------------|
B--12br-10-12br-10-12br-10-12br--10-8-10b-8-10b-8-10b-8-10\12---------|
G---------------------------------------------------------------------|
D---------------------------------------------------------------------|
A---------------------------------------------------------------------|
E---------------------------------------------------------------------|

Verse
e---------------------------------------------------------------------|
B---------------------------------------------------------------------|
G-9-9-9-9-9--5-5--7-7-------------------------------------------------|
D-9-9-9-9-9--5-5--7-7-------------------------------------------------|
A-7-7-7-7-7--3-3--5-5-------------------------------------------------|
E---------------------------------------------------------------------|
[ Tab from: http://www.guitartabs.cc/tabs/0-9/4_skins/get_out_of_my_life_tab.html ]
Bridge
e---------------------------------------------------------------------|
B---------------------------------------------------------------------|
G-9-9-9-9-9-9---------------------------------------------------------|
D-9-9-9-9-9-9---------------------------------------------------------|
A-7-7-7-7-7-7---------------------------------------------------------|
E---------------------------------------------------------------------|

Chorus

e---------------------------------------------------------------------|
B---------------------------------------------------------------------|
G----------------------5-------------7--------------------------------|
D--------7-------------5-------------7--------------------------------|
A--------7-------------3-------------5--------------------------------|
E--------5------------------------------------------------------------|

Solo
                    PM-------------------------------------------------|
e----------------------------------------------------------------------|
B--12br----12br----10-12-10-8-10-8-7-8-7-8-10-8-7-8-7-8----------------|
G----------------------------------------------------------------------|
D----------------------------------------------------------------------|
A----------------------------------------------------------------------|
E----------------------------------------------------------------------|

                       PM----------------------------------------------|
e----------------------------------------------------------------------|
B--12br----12br--10-12b--7-8-10-8-10-7-8-7-8-7-10-7-8------------------|
G----------------------------------------------------------------------|
D----------------------------------------------------------------------|
A----------------------------------------------------------------------|
E----------------------------------------------------------------------|

e---------------------------------------------------------------------|
B---12b-rp10--------12br-p10-12-12-----12br-p10-12-12-------12/-------|
G---------------------------------------------------------------------|
D---------------------------------------------------------------------|
A---------------------------------------------------------------------|
E---------------------------------------------------------------------|

Order:
Intro
Verse x3
Chorus
Bridge
Intro
Verse x2
Chorus
Bridge
Solo
Chorus

any questions or comments contact me please rate
Comments