45 Grave - Surf Bat Chords & Tabs

 

Surf Bat Chords & Tabs

45 Grave Chords & Tabs

Version: 1 Type: Tab 0 ratings
1 star 2 stars 3 stars 4 stars 5 stars
comments

Surf Bat Tab

This is an awesome song by 45Grave, it's all instrumental and it's really 
to play along with. I hope you enjoy.

I dedicate this tabbing to...Teddy.


INTRO
e-----------------|-----------------|-----------------|-----------------|
A-----------------|-----------------|-----------------|-----------------|
D-----------------|-----------------|-----------------|-----------------|
G-----------------|-----------------|-----------------|-----------------|
B-6/7-7-7---7-7-7-|-6/7-7-7---7-7-7-|-6/7-7-7-6/7-7-7-|-6/7-7-7--------|
E-0---0-0---0-0-0-|-0---0-0---0-0-0-|-O---O-O-O---O-O-|-O---O-O--------|


verse I                                                _________________   _______________
                                                      1.                  2.
e--7---7-7-------7-|-5-----------2---|-0-----0------2--|------------------||-----------------|
A------------8-----|-----7---------3-|-------------3-3-/-5----------------||-/5------5-4-3---|
Do-----------------|-------7-4-------|------------4----|----------9-----o||---------------6-|
Go-----------------|-----------------|-----------------|-----------------o||-----------------|
B------------------|-----------------|-----------------|------------------||-----------------|
E------------------|-----------------|-----------------|------------------||-----------------|


verse II                                               _________________   __________________
                                                      1.                  2.
e------------------|-2/3---3-3-3-2-1---|-----------3-2---|------------------||-----------------|
A------------------|-----------------4-/-5-----5-------4-b-5-------5-4-3----|b-5/--------------|
Do-5---5-5-----5-5-|-------------------|-----------------|---------------6-o||-----------------|
Go-----------------|-------------------|-----------------|-----------------o||-----------------|
B------------------|-------------------|-----------------|------------------||-----------------|
E------------------|-------------------|-----------------|------------------||-----------------|


verse III                                                      ____________________  _________________
                                                              1.                    2.
e--19---19-19----19-|-17---14---------14-|---------------14---|--------------------||----------------------|
A-------------20----|---------15---------|-17-----17----15-15-|-17-----17---------||-17-------17-16-15----|
Do------------------|------------16------|-------------16-----|-------------------o||-------------------18-|
Go------------------|--------------------|--------------------|-------------------o||----------------------|
B-------------------|--------------------|--------------------|--------------------||----------------------|
E-------------------|--------------------|--------------------|--------------------||----------------------|


verse IV                                                                 ______________________  __________________
                                                                        1.                      2.
e----------------------|-14/15---15-15-15-14-13----|-------------15-14----|-----------------------||-------------x-x-|
A----------------------|------------------------16-/-17-----17---------16-b-17-------17-16-15-----|b-17---------x-x-|
Do-17-----17-----17-17-|---------------------------|----------------------|-------------------18-o||-------------x-x-|
Go---------------------|---------------------------|----------------------|----------------------o||-----------------|
B----------------------|---------------------------|----------------------|-----------------------||-----------------|
E----------------------|---------------------------|----------------------|-----------------------||-----------------|

[ Tab from: http://www.guitartabs.cc/tabs/0-9/45_grave/surf_bat_tab.html ]
verse V                           ____________________________________   __________________________________
                                 1.                                    2.    
e--x-x-7-------7-|-x-x-5-------5-|-3---------------|-3----------------||-3---------------|-----------------|
A--x-x-----8-----|-x-x-----7-----|-3---5-5---3-3-3-|-3---5-5---3-3-3--||-3---5-5---3---5-|-5-----------5-5-|
Do-x-x-9---9---9-|-x-x-7---7---7-|-----4-4---2-2-2-|-----4-4---2-2-2-o||-----4-4---2---4-|-4-----------4-4-|
Go---------------|---------------|-----------------|-----------------o||-----------------|-----------------|
B----------------|---------------|-----------------|------------------||-----------------|-----------------|
E----------------|---------------|-----------------|------------------||-----------------|-----------------|


verse VI                                                  __________________  _________________
                                                         1.                  2.
e--3-----3-----3-3-/-5---5-3-----------|-----------------|------------------||-----------------|
A------5-----5-----|---------------5-3-|-5-----5---3-5-3-|-5-----------5-5--||-5---------------|
Do-----5-5---5-5-5-/-7---7-5-------4-2-|-4-----4---2-4-2-|-4-----------4-4-o||-4---------------|
Go-----------------|-------------------|-----------------|-----------------o||-----------------|
B------------------|-------------------|-----------------|------------------||-----------------|
E------------------|-------------------|-----------------|------------------||-------0/7------|


verse VII A 
(PALM)
e-----------------|-----------------|-----------------|-----------------|
A-----------------|-----------------|-----------------|-----------------|
D-----------------|-----------------|-----------------|-----------------|
G-----------------|-----------------|-----------------|-----------------|
B---------0-0-1-1-|-2-2-1-1-0-0-----|-----------------|-----------------|
E-0-0-3-3---------|-------------0-0-|-0-0-3-3-0-0-3-3-|-0-0-3-3-0-0-3-3-|


verse VII B
(NORMAL)
e-----------------|-----------------|-----------------|-----------------|
A-----------------|-----------------|-----------------|---------5-4-3---|
D-----------------|-----------------|-----------------|---------------6-|
G-----------------|-----------------|-----------------|-----------------|
B---------0-0-1-1-|-2-2-1-1-0-0-----|-----------------|-----------------|
E-0-0-3-3---------|-------------0-0-|-0-0-3-3-0-0-3-3-|-0---------------|


verse VIII

e---------------|-2/3---3-3-3-2-1---|-----------3-2---|-----------------|-----------------|-2/3-3-3-3-2-1---|
A---------------|-----------------4-/-5-----5-------4-b-5-------5-4-3---|-----------------|-----------------|
D-5-----5---5-5-|-------------------|-----------------|---------------6-|-5-----5-----5-5-|-----------------|
G---------------|-------------------|-----------------|-----------------|-----------------|-----------------|
B---------------|-------------------|-----------------|-----------------|-----------------|-----------------|
E---------------|-------------------|-----------------|-----------------|-----------------|-----------------|


verse IX

e-----------------|-----------------|-----------------|-----------------|
A-----------------|-----------------|-----------------|-----------------|
D-----------------|-----------------|-----------------|-----------------|
G-----------------|-----------------|-----------------|-----------------|
B-6/7-7-7---7-7-7-|-6/7-7-7---7-7-7-|-6/7-7-7-6/7-7-7-|-6/7-7-7---7-7-7-|
E-0---0-0---0-0-0-|-0---0-0---0-0-0-|-O---O-O-O---O-O-|-O---O-O---0-0-0-|


verse X

e-----------------|-----------------|-----------------|-----------------|
A-----------------|-----------------|-----------------|-----------------|
D-----------------|-----------------|-----------------|-----------------|
G-----------------|-----------------|-----------------|-----------------|
B-7-7-7-7-7-7-7-7-|-7-7-7-7-7-7-7-7-|-7-7-7-7-7-7-7-7-|-7-7-7-7-7-7-7-7-|
E-0-0-0-0-0-0-0-0-|-0-0-0-0-0-0-0-0-|-0-0-0-0-0-0-0-0-|-0-0-0-0-0-0-0-0-|


OUTRO
                                                                   tr 
e--------------------|-0-----------------|-------------------|-6-0-6-->>>>>--||
A--------------------|-0-----------------|-------------------|-0-------------||
D-7/9----(PALM)------|-0-----------------|-------------------|-3-------------||
G--------(2---2-1-2)-|-2-----(2---2-1-2)-|-------------------|---------------||
B--------------------|-0-----------------|-------(2---2-1-2)-|---------------||
E--------------------|-0-----------------|-0-0-0-------------|-0-------------||


45 Grave is an amazing band, I hope everyone enjoys.
                                       Bryan M. Whitaker
Comments