41down - Hover Chords & Tabs

 

Hover Chords & Tabs

41down Chords & Tabs

Version: 1 Type: Tab 0 ratings
1 star 2 stars 3 stars 4 stars 5 stars
comments

Hover Tab

#----------------------------------PLEASE NOTE---------------------------------#
#This file is the author's own work and represents their interpretation of the #
#song. You may only use this file for private study, scholarship, or research. #
#------------------------------------------------------------------------------##

By Zèû§


Dropped D Tuning

Guitar 1 main riff 1:
This riff is played like this a couple times.


Intro


E|----------16--------16-----------16------------16--------16----------16------------16---|
B|----------------------------------------------------------------------------------------|
G|--17-18-------17-18------17--18------18-17-18------17-18-----17--18------18-17-18-------|   
D|----------------------------------------------------------------------------------------|
A|----------------------------------------------------------------------------------------|
D|----------------------------------------------------------------------------------------|

[ Tab from: http://www.guitartabs.cc/tabs/0-9/41down/hover_tab.html ]
Guitar 2, I didn't put the progression, but the timing is 4/4's (guitar 1 keeps playing it's main riff)

E|--8------11------4--------|
B|--11-----14------7--------|
G|--10-----13------6--------|
D|--8------11------4--------|
A|--8------11------4--------|
D|--8------11------4--------|


Both Guitars

E|--------------------------|
B|-------6--------6----6----|
G|-------5--------5----5----|
D|--3--3----3-3-3----3------|
A|--3--3----3-3-3----3------|
D|--3--3----3-3-3----3------|


After Chorus	

E|----------------------------------------|
B|----------------------------------------|
G|----------------------------------------|
D|-2-2-x-2--3---3---3---2-2-x-2--3---3---3|
A|-2-2-x-2--3---3---3---2-2-x-2--3---3---3|
D|-2-2-x-2--3---3---3---2-2-x-2--3---3---3|



E|------------------|---------------------|
B|------------------|---------------------|
G|------------------|---------------------|
D|--4-4-x-4--11-----|--4-4-4-4--2--0------|
A|--4-4-x-4--11-----|--4-4-4-4--2--0------|
D|--4-4-x-4--11-----|--4-4-4-4--2--0------|


Listen to the song, it's not hard to put it down, enjoy. Any comments zeuszf@hotmail.com.



 Zèû§.

 
Comments