41 Down - Hover Chords & Tabs

 

Hover Chords & Tabs

41 Down Chords & Tabs

Version: 1 Type: Tab 0 ratings
1 star 2 stars 3 stars 4 stars 5 stars
comments

Hover Tab

          Name: Vitali
          E-mail:tccracker84@tccracker84.com
          
          41 Down - "Hover"
          
          Dropped D Tuning
          
          Guitar 1 main riff 1:
          This riff is played t
          
          E|-------------------------------
          B|-------------------------------
          G|-------12-------12-----------12
          D|--9-10-----9-10-----9-10-------
          A|-------------------------------
          D|-------------------------------
          
          
          Guitar 2 riff 1 (guitar 1 keeps playing its main riff)
          
          E|-------------------------------
          B|-------------------------------
          G|-------------------------------
          D|---9--9-9-/-11-11--\-3-3--3-3-3
          A|---9--9-9-/-11-11--\-3-3--3-3-3
          D|---9--9-9-/-11-11--\-3-3--3-3-3
          
          
          Guitar 2 verse riff
          
          E|-------------------------------
          B|-------------------------------
          G|-------------------------------
          D|---2-2-2-2--2-2-2--------------
          A|---2-2-2-2--3-3-3--------------
          D|---2-2-2-2--2-2-2--------------
          
          Guitar 2 Prechorus
          
          E|-----------------------------------------
          B|-----------------------------------------
          G|-----------------------------------------
          D|-2-2-2---2-2-2---2----3-3-3---3-3-3---3--
          A|-2-2-2---2-2-2---2----3-3-3---3-3-3---3--
          D|-2-2-2---2-2-2---2----3-3-3---3-3-3---3--
          
          Then both guitars play their main riff for the chorus
          
          Later on in the song there is this bridge riff:
          
          E|--------------------------
          B|--------------------------
          G|--------------------------
          D|-2-2-x-2--3---2-2-x-2--3--
          A|-2-2-x-2--3---2-2-x-2--3--
          D|-2-2-x-2--3---2-2-x-2--3--
          
          After 2 times, the other guitar plays this along the bridge riff:
          
          E|-----------------
          B|-----------------
          G|-----------------
          D|-2-2-2-2-----3---
          A|-2-2-2-2-----3---
          D|-2-2-2-2-----3---
          
          Order of tabs:
          
          Guitar 1 plays main riff for a while
          Both guitars play their main riffs
          Verse
          Prechorus
          Main riff
          (repeat above for a while)
          Bridge
          Main riff
          Bridge
          
          This song is pretty easy to play
[ Tab from: http://www.guitartabs.cc/tabs/0-9/41_down/hover_tab.html ]
Comments