3 Out Of 5 - Mother Acoustic Chords & Tabs

 

Mother Acoustic Chords & Tabs

3 Out Of 5 Chords & Tabs

Version: 1 Type: Tab 0 ratings
1 star 2 stars 3 stars 4 stars 5 stars
comments

Mother Acoustic Tab

   
Band: 3 Out Of 5
Song: Mother (acoustic version)
Album: The Horoscopic Revelations...
Transcribed by: Mike Alliss
Email: Snowblind57@hotmail.com

Standard Tuning

C
e----------------
b--------1-------
g----0-----0---0-
d---2--2-----2---
a-3--------------
e----------------

Em
e-----------------
b---------0-------
g-----0-----0---0-
d---2---2-----2---
a-2---------------
e-----------------

Am
e-----------------
b---------0-------
g-----2-----2---2-
d---2---2-----2---
a-0---------------
e-----------------
[ Tab from: http://www.guitartabs.cc/tabs/0-9/3_out_of_5/mother_acoustic_tab.html ]
Asus4?	
e------------------
b---------2--------
g-----0-----0---0--
d---2---2-----2----
a-0----------------
e------------------
                                                                              
 c  h  o  r  u  s
e-0----0----0----3-
b-0----0----1----0-
g-2----0----0----0-
d-2----2----2----0-
a-0----2----3----2-
e-0----0----x----3-
  Am   Em   C    G

interlude
e-0----0---
b-0----1---
g-2----0---
d-2----2---
a-0----0---
e-0----x---                                                           
  Am  C/A

o u t r o (Em)
e-------0--
b-----0----
g----0-----
d---2------
a--2-------
e-0--------
Comments