3 Idiots - Give Me Some Sunshine Chords & Tabs

 

3 Idiots Chords & Tabs

Version: 2 Type: Chords 0 ratings
1 star 2 stars 3 stars 4 stars 5 stars
comments

Give Me Some Sunshine Chords

   
Intro-
C-F-C-F-C-F-C-G x2

Verse I
C           F
Saari umar hum
C           F
Mar mar ke jee liye
C               F    C
Ek pal to ab humein jeene do
G
Jeene do
C           F
Saari umar hum
C           F
Mar mar ke jee liye
C           F       C
Ek pal to ab humein jeene do
G
Jeene do

Pre-chorus
C      G
Na na na na
C          G
Na na na na na na
C          G
Na na na na na na
F          G
Na na nana na na

Chorus
C             G
Give me some sunshine
C             G
Give me some rain
C             G
Give me another chance
F             G
I wanna grow up once again
C             G
Give me some sunshine
C             G
Give me some rain
C             G
Give me another chance
F             G
I wanna grow up once again

Intro-
C-F-C-F-C-F-C-G x2

Verse II
C           F
Bachpan to gaya
C           F
Jawani bhi gayi
C           F
Ek pal to ab humein
C           G
Jeene do jeene do
C           F
Bachpan to gaya
C           F
Jawani bhi gayi
C           F
Ek pal to ab humein
C           G
Jeene do jeene doooo

Solo-
E|----------------------------------------------------|
B|----------------------------------------------------|
G|-------------5---5--9--7--5---5---------5-----------|
D|--------5h-7---7------------7---7--5--7-------------|
A|---5h-7---------------------------------------------|
E|-8--------------------------------------------------|

E|------------8----10----8--8/13--13--13--15------------------|
B|------8h-10---10----10----------------------15--13----13----|
G|-7h-9----------------------------------------------14-------|
D|------------------------------------------------------------|
A|------------------------------------------------------------|
E|------------------------------------------------------------|
[ Tab from: http://www.guitartabs.cc/tabs/0-9/3_idiots/give_me_some_sunshine_crd_ver_2.html ]
E|--------15h-17-15-15-12h-13---12h-13-15-15-12h-13---|
B|-15h-17---------------------------------------------|
G|----------------------------------------------------|
D|----------------------------------------------------|
A|----------------------------------------------------|
E|----------------------------------------------------|

E|----------------------------------------------------|
B|-12--17-17--13h-15----------------------------------|
G|-------------------12h-14---------------------------|
D|--------------------------12h-14--12----------------|
A|----------------------------------------------------|
E|----------------------------------------------------|

E|---------------------12--10/12--10/8----------------|
B|-----------------13---------------------------------|
G|---------12h-14-------------------------------------|
D|-12h-14---------------------------------------------|
A|----------------------------------------------------|
E|----------------------------------------------------|

Verse III
C          F
Saari umar hum
C          F
Mar mar ke jee liye
C          F
Ek pal to ab humein jeene do
C          G
Jeene do

Pre-chorus
C        G
Na na na na
C        G
Na na na na na na
C        G
Na na na na na na
F        G
Na na nana na na

Chorus
C           G
Give me some sunshine
C           G
Give me some rain
C           G
Give me another chance
F           G
I wanna grow up once again
C           G
Give me some sunshine
C           G
Give me some rain
C           G
Give me another chance
F           G
I wanna grow up once again

Ending
C       G
Na na na na
C       G
Na na na na na na
C       G
Na na na na na na
F       G
Na na nana na na
C       G
Na na na na
C       G
Na na na na na na
C       G
Na na na na na na
F       G
Na na nana na na

Note- The solo is a bit difficult, so it's better if you take help from songsterr.com 
too, cause I used their solo, other solo(from other contributions) and alternated them a 
bit to make a perfect one.
Rate and comment please.
sidharthk16@yahoo.in
Comments