3 Feet Smaller - Suffocate Me Chords & Tabs

 

Suffocate Me Chords & Tabs

3 Feet Smaller Chords & Tabs

Version: 1 Type: Tab 0 ratings
1 star 2 stars 3 stars 4 stars 5 stars
comments

Suffocate Me Tab

Artist: 3 Feet Smaller
Title:  Suffocate Me
Album:  Damn, We Need A Title For This Record

Tabe Written By: Georg Erhart


.:Intro:. (clean)
e|--------------------------------------------------------------------------------|
H|--------------------------------------------------------------------------------|
G|--------------------------------------------------------------------------------|
D|--------------------------------------------------------------------------------|
A|-----------------------------33333333--0--55555555--0---------------------------|
E|----33333333----55555555--0-----------------------------------------------------|


.:Verse:. (pm)
e|--------------------------------------------------------------------------------|
H|--------------------------------------------------------------------------------|
G|--------------------------------------------------------------------------------|
D|--------------------------------------------------------------------------------|
A|-----------------------------33333333--0--55555555--0---------------------------|
E|----33333333----55555555--0-----------------------------------------------------|
      ........    ........  .  ........  .  ........  .


.:Ref:. 
e|--------------------------------------------------------------------------------|
H|--------------------------------------------------------------------------------|
G|----------------77777777----55555555----77777777--------------------------------|
D|----55555555----77777777----55555555----77777777--------------------------------|
A|----55555555----55555555----33333333----55555555--------------------------------|
E|----33333333--------------------------------------------------------------------|


.:Intro:. (clean)
e|--------------------------------------------------------------------------------|
H|--------------------------------------------------------------------------------|
G|--------------------------------------------------------------------------------|
D|--------------------------------------------------------------------------------|
A|-----------------------------33333333--0--55555555--0---------------------------|
E|----33333333----55555555--0-----------------------------------------------------|

[ Tab from: http://www.guitartabs.cc/tabs/0-9/3_feet_smaller/suffocate_me_tab.html ]
.:Verse:. (pm)
e|--------------------------------------------------------------------------------|
H|--------------------------------------------------------------------------------|
G|--------------------------------------------------------------------------------|
D|--------------------------------------------------------------------------------|
A|-----------------------------33333333--0--55555555--0---------------------------|
E|----33333333----55555555--0-----------------------------------------------------|
      ........    ........  .  ........  .  ........  .


.:Ref:. 
e|--------------------------------------------------------------------------------|
H|--------------------------------------------------------------------------------|
G|----------------77777777----55555555----77777777--------------------------------|
D|----55555555----77777777----55555555----77777777--------------------------------|
A|----55555555----55555555----33333333----55555555--------------------------------|
E|----33333333--------------------------------------------------------------------|


.:Bridge:. (clean)
e|--------------------------------------------------------------------------------|
H|--------------------------------------------------------------------------------|
G|--------------------------------------------------------------------------------|
D|--------------------------------------------------------------------------------|
A|-----------------------------33333333--0--55555555--0---------------------------|
E|----33333333----55555555--0-----------------------------------------------------|


.:Ref:. 
e|--------------------------------------------------------------------------------|
H|--------------------------------------------------------------------------------|
G|----------------77777777----55555555----77777777--------------------------------|
D|----55555555----77777777----55555555----77777777--------------------------------|
A|----55555555----55555555----33333333----55555555--------------------------------|
E|----33333333--------------------------------------------------------------------|


.:Outhrow:. (clean)
e|--------------------------------------------------------------------------------|
H|--------------------------------------------------------------------------------|
G|--------------------------------------------------------------------------------|
D|--------------------------------------------------------------------------------|
A|-------------------------------------------------33333333--0--5-----------------|
E|----33333333----55555555--33333333--55555555--0---------------------------------|


__-->--__

Intro    2x
Verse    4x
Ref      2x
Intro    1x
Verse    4x
Ref      2x
Bridge   4x
Ref      4x
Outthrow 1x
Comments