3 Feet Smaller - One Night Stand Chords & Tabs

 

One Night Stand Chords & Tabs

3 Feet Smaller Chords & Tabs

Version: 1 Type: Tab 0 ratings
1 star 2 stars 3 stars 4 stars 5 stars
comments

One Night Stand Tab

Artist: 3 Feet Smaller
Title:  One Night Stand
Album:  Insert The Album Title Here...

Tabe Written By: Georg Erhart


.:Intro:.
e|--------------------------------------------------------------------------------|
H|--------------------------------------------------------------------------------|
G|---------7777----------999------------------------------------------------------|
D|---777---7777---7777---999------------------------------------------------------|
A|---777---5555---7777---777------------------------------------------------------|
E|---555----------5555------------------------------------------------------------|


.:Verse:.
e|--------------------------------------------------------------------------------|
H|--------------------------------------------------------------------------------|
G|---------7777----------999------------------------------------------------------|
D|---777---7777---7777---999------------------------------------------------------|
A|---777---5555---7777---777------------------------------------------------------|
E|---555----------5555------------------------------------------------------------|
     ...   ....   ....   ...


e|--------------------------------------------------------------------------------|
H|--------------------------------------------------------------------------------|
G|---------7777----------999------------------------------------------------------|
D|---777---7777---7777---999------------------------------------------------------|
A|---777---5555---7777---777------------------------------------------------------|
E|---555----------5555------------------------------------------------------------|


.:PreVerse:.
e|--------------------------------------------------------------------------------|
H|--------------------------------------------------------------------------------|
G|--------------7~--------------9~------------------------------------------------|
D|---77777777---7~---77777777---9~------------------------------------------------|
A|---77777777---5~---77777777---7~------------------------------------------------|
E|---55555555--------55555555-----------------------------------------------------|
     ........        ........


.:Ref:.
e|--------------------------------------------------------------------------------|
H|--------------------------------------------------------------------------------|
G|----------77---99---------------------------------------------------------------|
D|---7777---77---99---------------------------------------------------------------|
A|---7777---55---77---------------------------------------------------------------|
E|---5555-------------------------------------------------------------------------|

.:Bridge:.
e|--------------------------------------------------------------------------------|
H|--------------------------------------------------------------------------------|
G|-------7---7~-------------------------------------------------------------------|
D|---7---7---7~-------------------------------------------------------------------|
A|---7---5---9~-------------------------------------------------------------------|
E|---5----------------------------------------------------------------------------|
    (p) (p)

.:Intro:.
e|--------------------------------------------------------------------------------|
H|--------------------------------------------------------------------------------|
G|---------7777----------999------------------------------------------------------|
D|---777---7777---7777---999------------------------------------------------------|
A|---777---5555---7777---777------------------------------------------------------|
E|---555----------5555------------------------------------------------------------|


.:Verse:.
e|--------------------------------------------------------------------------------|
H|--------------------------------------------------------------------------------|
G|---------7777----------999------------------------------------------------------|
D|---777---7777---7777---999------------------------------------------------------|
A|---777---5555---7777---777------------------------------------------------------|
E|---555----------5555------------------------------------------------------------|
     ...   ....   ....   ...

[ Tab from: http://www.guitartabs.cc/tabs/0-9/3_feet_smaller/one_night_stand_tab.html ]
e|--------------------------------------------------------------------------------|
H|--------------------------------------------------------------------------------|
G|---------7777----------999------------------------------------------------------|
D|---777---7777---7777---999------------------------------------------------------|
A|---777---5555---7777---777------------------------------------------------------|
E|---555----------5555------------------------------------------------------------|


.:PreVerse:.
e|--------------------------------------------------------------------------------|
H|--------------------------------------------------------------------------------|
G|--------------7~--------------9~------------------------------------------------|
D|---77777777---7~---77777777---9~------------------------------------------------|
A|---77777777---5~---77777777---7~------------------------------------------------|
E|---55555555--------55555555-----------------------------------------------------|
     ........        ........


.:Ref:.
e|--------------------------------------------------------------------------------|
H|--------------------------------------------------------------------------------|
G|----------77---99---------------------------------------------------------------|
D|---7777---77---99---------------------------------------------------------------|
A|---7777---55---77---------------------------------------------------------------|
E|---5555-------------------------------------------------------------------------|

.:Bridge:.
e|--------------------------------------------------------------------------------|
H|--------------------------------------------------------------------------------|
G|-------7---7~-------------------------------------------------------------------|
D|---7---7---7~-------------------------------------------------------------------|
A|---7---5---9~-------------------------------------------------------------------|
E|---5----------------------------------------------------------------------------|
    (p) (p)


.:Intro:.
e|--------------------------------------------------------------------------------|
H|--------------------------------------------------------------------------------|
G|---------7777----------999------------------------------------------------------|
D|---777---7777---7777---999------------------------------------------------------|
A|---777---5555---7777---777------------------------------------------------------|
E|---555----------5555------------------------------------------------------------|


.:PreVerse:.
e|--------------------------------------------------------------------------------|
H|--------------------------------------------------------------------------------|
G|--------------7~--------------9~------------------------------------------------|
D|---77777777---7~---77777777---9~------------------------------------------------|
A|---77777777---5~---77777777---7~------------------------------------------------|
E|---55555555--------55555555-----------------------------------------------------|
     ........        ........


.:Ref:.
e|--------------------------------------------------------------------------------|
H|--------------------------------------------------------------------------------|
G|----------77---99---------------------------------------------------------------|
D|---7777---77---99---------------------------------------------------------------|
A|---7777---55---77---------------------------------------------------------------|
E|---5555-------------------------------------------------------------------------|

.:Bridge:.
e|--------------------------------------------------------------------------------|
H|--------------------------------------------------------------------------------|
G|-------7---7~-------------------------------------------------------------------|
D|---7---7---7~-------------------------------------------------------------------|
A|---7---5---9~-------------------------------------------------------------------|
E|---5----------------------------------------------------------------------------|
    (p) (p)


.:Outthrow:.
e|--------------------------------------------------------------------------------|
H|--------------------------------------------------------------------------------|
G|---777777------------999999---77777777------------------------------------------|
D|---777777---777777---999999---77777777---7~-------------------------------------|
A|---555555---777777---777777---55555555---7~-------------------------------------|
E|------------555555-----------------------5~-------------------------------------|


__-->--__

Intro    4x
Verse    2x
PreVerse 1x
Ref      4x
Bridge   1x
Intro    2x
Verse    2x
PreVerse 1x
Ref      4x
Bridge   1x
Intro    4x
PreVerse 1x
Ref      4x
Bridge   1x
Outthrow 1x
Comments