3 Doors Down - When I'm Gone Chords & Tabs

 

When I'm Gone Chords & Tabs

3 Doors Down Chords & Tabs

Version: 7 Type: Tab 0 ratings
1 star 2 stars 3 stars 4 stars 5 stars
comments

When I'm Gone Tab

   
Since I couldnt find any tabs that were that close to being correct,
I decided to put this tab on. It sounds good. I hope its close to correct.
Any questions/comments e-mail me at: adam_meidinger@hotmail.com
Tabbed by: Adam Meidinger - North Dakota


3 Doors Down - When I'm Gone

Intro:
Guitar One
e|----------------------------------3--------------------------------3--|
B|----0h1---1p0-0h1----------0h1----3-----0h1---3---1---0------0h1---3--|
G|---2---2-----2---2--------0----0--0----2---2---2---2---0----0---0--0--|
D|--2-----2---------2------2-----0--0---2-----2---2---2------2-------0--|
A|-0----------------------3---------2--0--------------------3--------2--|
E|----------------------------------3--------------------------------3--|

Guitar Two
e|----------------------------------------------------------------------|
B|---------------------------5------5-----------------------------------|
G|------------------4h5-5/7---------------5p4-4-----5/7-----5--------4--|
D|-------------------------------------------5--------------------------|
A|----------------------------------------------------------------------|
E|----------------------------------------------------------------------|
 

Verse 1:
Guitar One
e|------|-0--0-----------------|
B|-1p0--|-0---0----------1--3--|
G|----0-|-2----2---------0--0--|
D|------|-2-------------2---0--|
A|------|-0--------0-2-3----2--|
E|------|-------------------3--|
  ^^^^^^
Play this part first time in verse only

Guitar Two
e|------|
B|------|
G|------|
D|-7----|--Then play -Asus2--C--G-
A|------|
E|------|
  ^^^^^^
Play this part first time in verse only

Riff A:
Guitar One
e|--------0-------------------0------------|
B|----0h1-3-----0h1-0-----0h1-3-----0h1----|
G|---2---------2----2----2---------2---2---|
D|--2---------2---------2---------2-----2--|
A|-0---------0---------0---------0---------|
E|-----------------------------------------|

Chorus:
e|---------------------------------------------------------|
B|---------------------------------------------------------|
G|------------2-2-xx-2-2-xx----------5-5-xx----------------|
D|------------2-2-xx-2-2-xx----------5-5-xx-5-5-xx---------|
A|---2h3p2p0--0-0-xx-0-0-xx-2h3p2p0--7-7-xx-5-5-xx---------|
E|------------------------------------------3-3-xx---------| 4X
So hold me when I'm here... (Chorus)

e|------------------|
B|------------------|
G|------------2vvvv-|
D|------------2vvvv-|
A|---2h3p2p0-0vvvv-|
E|------------------| Chorus End






Guitar 1                   Guitar 2    		      
e|-----------------------| e|-----------------------|
B|-----------------------| B|-----------------------|
G|-----------------------| G|-----------------------|
D|----7----7/9/10-xx-5---| D|-----------9h10--------|
A|----7----7/9/10-xx-3---| A|--10h12-10-------10----|
E|----5----5/7/8--xx-3---| E|-----------------------|

Guitar 1                   Guitar 2    		      
e|-----------------------| e|------------------------|
B|-----------------------| B|------------------------|
G|-----------------------| G|------------------------|
D|----7----7/9/10-xx-5---| D|-------9h10-------------|
A|----7----7/9/10-xx-3---| A|--/12-------12p10----10-|
E|----5----5/7/8--xx-3---| E|------------------12----|
After 1st Chorus 

Verse 2:
Guitar One                                  
e|--------------3----------0---------3-3---|-3-|-----------|
B|-----------1--3----------1--3---0-----5--|-5-|-----5-----|
G|--2--------0--0----------2----0----------|---|-----------|
D|--2-------2---0----------2---------------|---|--7-----7--|
A|--0--0-2-3----2----------0---------------|---|-----------|
E|--------------3--------------------------|---|-----------|

Guitar Two
e|-----------------0-----|
B|-------------------0-3-|
G|-----------------------|----Repeat Verse 1 until here----|
D|-----------------------|
A|-----------------------|
E|-----------------------|

Guitar One
e|-0---------------------------------------------|
B|-0--------------------------1--3---------------|
G|-2--------------------------0--0------4/5\4----|
D|-2-------------------------2---0------4/5\4----|
A|-0--------------------0-2-3----2------2/3\2----|
E|-------------------------------3----0-------0--|
                                             
[ Tab from: http://www.guitartabs.cc/tabs/0-9/3_doors_down/when_im_gone_tab_ver_7.html ]
Guitar Two
e|-5----5-5---5-5---5-5------|
B|--5--8-----8-----8----8-8--|
G|----------5-----5----------|
D|---------------------------|
A|---------------------------|
E|---------------------------|

Chorus:
e|---------------------------------------------------------|
B|---------------------------------------------------------|
G|------------2-2-xx-2-2-xx----------5-5-xx----------------|
D|------------2-2-xx-2-2-xx----------5-5-xx-5-5-xx---------|
A|---2h3p2p0--0-0-xx-0-0-xx-2h3p2p0--7-7-xx-5-5-xx---------|
E|------------------------------------------3-3-xx---------| 4X
So hold me when I'm here... (Chorus)

e|------------------|
B|------------------|
G|------------2vvvv-|
D|------------2vvvv-|
A|---2h3p2p0-0vvvv-|
E|------------------| Chorus End





Bridge
Guitar One
e|-----------------------------------|
B|-----------------------------------|
G|-----------------------------------|
D|--7-xx-9/10-xx-10/12-xx-12/14/12---|
A|--7-xx-9/10-xx-10/12-xx-12/14/12---|
E|--5-xx-7/8--xx--8/10-xx-10/12/10---|

e|-------------------------------------|
B|-------------------------------------|
G|-------------------------------------|
D|--7-xx-9/10-xx-10/12-xx-5-4-5-7vvvv-|
A|--7-xx-9/10-xx-10/12-xx-5-4-5-7vvvv-|
E|--5-xx-7/8--xx--8/10-xx-3-2-3-5vvvv-| 2X

Riff B:
Guitar One
e|---------------------------|
B|---------------------------|
G|-2-------------------------|
D|-2-let ring----------------|
A|-0-------------------------|
E|---------------------------|

Guitar Two
e|----------0----------------|
B|----0h1-3---3-------0h1-0--|
G|---2---------2----2-----2--|
D|--2--------------2---------|
A|-0-------------0-----------|
E|---------------------------|

Solo: (Guitar Two plays Chorus over Solo)
Guitar One
e|---------------------------------------------------------------|
B|-5b(1/4)-------------------------------------------------------|
G|-5b(1/4)-------------------------------------------------------|
D|---------7h5-7v--7v--7v--7v--7h5--5----------------------------|
A|---------------------------------7-7-6-5b-------6-6-5----------|
E|------------------------------------------------------8-8-8-5--|

Solo Cont.:
Guitar One
e|-----------------------------------------------------------------|
B|-----------------------------------------------------------------|
G|----------------------------------5b(1/4)------------5b(1/4)-----|
D|----------------------------7-7-7---------7-7--7-7-5--------0-0--|
A|-----------------------------------------------------------------|
E|-5v--5-8-5-5v--3-5-3-5-0-0---------------------------------------|

Solo Cont.:
Guitar One                                   x6         x5      x4
e|----------------------------------------|------|---|-------|-------|
B|--------------------5-5-----------8-8-8-|5-----|-\-|-8-----|12-----|
G|-4---4-5-----4------5-5--7b(1/2)--7-7-7-|7ub(1)|-\-|10ub(1)|14ub(1)|
D|---7-----0-0---7-7\---------------------|------|---|-------|-------|
A|----------------------------------------|------|---|-------|-------|
E|----------------------------------------|------|---|-------|-------|

Solo Cont.:
Guitar One      x3
e|----------|-------|-17---|
B|----------|17-----|-17---|
G|----------|19ub(1)|------|
D|----------|-------|------|
A|----------|-------|------|
E|----------|-------|------|



Chorus:
e|---------------------------------------------------------|
B|---------------------------------------------------------|
G|------------2-2-xx-2-2-xx----------5-5-xx----------------|
D|------------2-2-xx-2-2-xx----------5-5-xx-5-5-xx---------|
A|---2h3p2p0--0-0-xx-0-0-xx-2h3p2p0--7-7-xx-5-5-xx---------|
E|------------------------------------------3-3-xx---------| 4X
So hold me when I'm here... (Chorus)

e|------------------|
B|------------------|
G|------------2vvvv-|
D|------------2vvvv-|
A|---2h3p2p0-0vvvv-|
E|------------------| Chorus End

Outro: 
Guitar One
e|-----------------------------------------|-----------------|
B|-5---------------------------------------|-----------------|
G|---4-----4----5--4---------5--4--5----5--|-4---------------|
D|-------7---7---------7---5---------------|----------7---7--|
A|-----------------------------------------|-----------------|
E|-----------------------------------------|-----------------|

Guitar Two
Guitar One
e|-------------------------|		     |-----------------|
B|-------------------------|		     |-----------------|
G|-2---------5--5----------|		     |-5--5------------|
D|-2---------5--5-------5--|		     |-5--5-----5------|
A|-0----0-2--3--3-------5--|		     |-3--3-----5------|
E|----------------0--0--3--| 4X	             |------0-0-3------|
Comments