3 Doors Down - When I'm Gone Chords & Tabs

 

When I'm Gone Chords & Tabs

3 Doors Down Chords & Tabs

Version: 3 Type: Tab 0 ratings
1 star 2 stars 3 stars 4 stars 5 stars
comments

When I'm Gone Tab

   
#-----------------------------------------------------------------------------#
#-- File created with Instab - http://www.pconline.com/~smcarey/instab.html --#
#-----------------------------------------------------------------------------#

Author/Artist: Three Doors Down
Title: When Im Gone
Album: Away From the Sun
Transcribed by: Brad Davis
Email: polokid91@hotmail.com

this song is pretty easy after you get the hang of it
fun to play... after you get to the last riff i have
tabbed out you should be able to figure out 
the rest on your own...its just the same riffs repeating.
have fun.
p.s. if anyone has the solo...please e-mail it to me

------------------------------------------------3-----------------------------
---------------0h1-----3-----1-------------1----3-----------------------------
-------------2-----2-----2-----2---2---------0--0-----------------------------
-----------2---------2-----2-----2-------2------0-----------------------------
---------0-----------------------------3--------2-----------------------------
------------------------------------------------3-----------------------------
 (intro) Am                            C        G                             

------------------------------------------------------------------------------
------------------------------------------------------------------------------
------------------------------------------------------------------------------
-------4-5-/-7-/-9-9vvvv------------------------------------------------------
------------------------------------------------------------------------------
------------------------------------------------------------------------------
 (lead)C           G                                                          

-----------------------------------------------3------------------------------
--------------0h1-----3-----1-------------1----3----3-1-0---------------------
------------2-----2-----2-----2---2---------0--0----------0-2-----------------
----------2---------2-----2-----2-------2------0------------------------------
--------0-----------------------------3--------2------------------------------
-----------------------------------------------3------------------------------
        Am                            C        G                              

------------------------------------------------------------------------------
------------------------------------------------------------------------------
------------------------------------------------------------------------------
--------5p4-4vvv-/7-5vvv-4vvv--7-5-4------------------------------------------
-------------------------------------5/7--------------------------------------
------------------------------------------------------------------------------
 (lead)Am           C    G                                                    
[ Tab from: http://www.guitartabs.cc/tabs/0-9/3_doors_down/when_im_gone_tab_ver_3.html ]
-----------0-----------------------------0-------------3----------------------
-----------1-----------------------------1-------------3----------------------
-----------2-----------------------------0-------------0----------------------
-----------2-----------------------------2-------------0----------------------
-----------0-----------------------------3-------------2----------------------
-------------------------------------------------------3----------------------
                   

------------------------------------------------------------------------------
-------------------0h1-3vvvv-------0h1-0vvv-----------------------------------
-----------------2---------------2--------------------------------------------
---------------2---------------2----------------------------------------------
-------------0---------------0------------------------------------------------
------------------------------------------------------------------------------
                                                         

------------------------------------------------------------------------------
------------------------------------------------------------------------------
---------------------2----------------------2-----4----5----------7-----------
---------------------2----------------------2-----4----5----------7-----------
---------------------0----------------------0-----2----3----------5-----------
------------------------------------------------------------------------------
   

------------------------------------------------------------------------------
------------------------------------------------------------------------------
-----------------------------------------2------------------------------------
---------------------5-------------------2------------------------------------
---------------------5------2--3--2------0------------------------------------
---------------------3----------------3---------------------------------------
                             

------------------------------------------------------------------------------
------------------------------------------------------------------------------
---------------2--4--5--x-x---------------------2-----------------------------
---------------2--4--5--x-x--5------------------2-----------------------------
---------------0--2--3--x-x--5------------------0-----------------------------
-----------------------------3------------------------------------------------
 (after chorus)                "love me when im gone"                         

------------------------------------------------------------------------------
------------------------------------------------------------------------------
----------------------------4--5--7vv--5--4------------2vvvv------------------
---------------------------------------------5--7vvvv--2vvvv------------------
-------------------------------------------------------0vvvv------------------
------------------------------------------------------------------------------
 (lead over that last part)                            let ring into verse 2  

------------------------------------------------------------------------------
------------------------------------------------------------------------------
---2-----4-/-5-----5-/-7-----7-/-9-\-7-/-9------------------------------------
---2-----4-/-5-----5-/-7-----7-/-9-\-7-/-9------------------------------------
---0-0-0-2-/-3-3-3-3-/-5-5-5-5-/-7-\-5-/-7------------------------------------
------------------------------------------------------------------------------
 this is that heavy part after the 2nd chorus..play 2x                        

Comments