3 Doors Down - When I'm Gone Chords & Tabs

 

When I'm Gone Chords & Tabs

3 Doors Down Chords & Tabs

Version: 2 Type: Tab 2 ratings
1 star 2 stars 3 stars 4 stars 5 stars
comments

When I'm Gone Tab

3 Doors Down - When Im Gone
      

Intro
-----------------------------------------------------------------------
---0--0h1-1p0-0h1-----0h1p0h3-----0h1-3p1-0h1-----0h1p0h3--1p0---------
---2-------------------------------------------------------------------
---2-------------------------------------------------------------------
---0---------------0-----------0---------------0-----------------------
-----------------------------------------------------------------------

Verse
-------------------------
-------------------------
---2---------------------
---2-------------5-------
---0----0h2h3----5-------
-----------------3-------

PreChorus
-------------------------
------0h1---3------------
---2---------------------
-------------------------
-------------------------
-------------------------
[ Tab from: http://www.guitartabs.cc/tabs/0-9/3_doors_down/when_im_gone_tab_ver_2.html ]
Chorus
-----------------------------------------------------------------------
-----------------------------------------------------------------------
-----------2-2---2-2----------7-7--------------------------------------
-----------2-2---2-2----------7-7--5-5---------------------------------
---2h3p2---0-0---0-0---0-2h3--5-5--5-5---------------------------------
-----------------------------------3-3---------------------------------

Verse

Chorus

Breakdown
-----------------------------------------------------------------------
-----------------------------------------------------------------------
---2-------------------------------------------------------------------
---2-------------------------------------------------------------------
---0--0-2h3---0-3h5---0-5h7-5-3----------------------------------------
-----------------------------------------------------------------------

------------------------------------
------0h1---3--------0h1---0--------
---2--------------2-----------------
------------------------------------
------------------------------------
------------------------------------

-----------------------------------------------------------------------
-----------------------------------------------------------------------
---2-----------2-------7---7-------------------------------------------
---2-----------2-------7---7-5-----------------------------------------
---0---0-2h3---0--2h3--5---5-5---2h3p2---------------------------------
-----------------------------3-----------------------------------------

Chorus

Outro = Play Verse       
Comments