3 Doors Down - When I'm Gone Chords & Tabs

 

When I'm Gone Chords & Tabs

3 Doors Down Chords & Tabs

Version: 10 Type: Tab 0 ratings
1 star 2 stars 3 stars 4 stars 5 stars
comments

When I'm Gone Tab

3 Doors Down
When Im Gone (Solo)

Heres the main solo to this song its not perfect and i think theres more to it but this 
what i got so far

e--------------------------------------------------------|
B--------------------------------------------------------|
G--------------------------------------------------------|
D-7~~--7-5-7~----7--7-7~--7-7---7--5-----5---------------|
A-------------------------------------7-----7--6--5---5b-|
E--------------------------------------------------------|

e-------------------------------------------------|
B-------------------------------------------------|
G-------------------------------------------------|
D-------------------------------------------------|
A-5~~--3--3-----------3---------------------------|
E-----------5--5~~-5----5-5~~---3--5--3--5---3--0-|
[ Tab from: http://www.guitartabs.cc/tabs/0-9/3_doors_down/when_im_gone_tab_ver_10.html ]
e-------------------------------------------------------|
B-------------------------------------------------------|
G-------------5b------------5--------4---------4--5-----|
D-7--7--7--7------7~--7-7-5----7-5-------7~~~-------7-x-|
A-------------------------------------------------------|
E-------------------------------------------------------|

e------------------------------------------------|
B----------------------5------------5-8-8-5------|
G-4----------------5------------7b--------7b-----|
D-------7----7~~~--------------------------------|
A------------------------------------------------|
E------------------------------------------------|

e-----------------------------------------------------|
B-5-5-5--------8---8-8-8-8-----12--12-12-12-12--------|
G---------7/9--10b-----------x-14b---------------19b--|
D-----------------------------------------------------|
A-----------------------------------------------------|
E-----------------------------------------------------|

Just play around with it abit and ull get it
Comments