3 Doors Down - When I M Gone Chords & Tabs

 

When I M Gone Chords & Tabs

3 Doors Down Chords & Tabs

Version: 1 Type: Tab 0 ratings
1 star 2 stars 3 stars 4 stars 5 stars
comments

When I M Gone Tab

   
TITLE: When I'm Gone
ARTIST: 3 Doors Down
TABBER: Rob Marston 
TUNING: Standard (EBGDAE)
NOTES: Great song, love the chorus.


Intro:
Start "Guitar 2" where the you see the asterisk (*)
unless you can play both together, I know I can't.

Guitar 1:
                   Am              C      G
E-|---------------------------------------3---|
B-|-------0h1----1p0---0h1----------0h1---3---|
G-|---2-------2------2-----2---2--------0-----|
D-|-----2-------2------------2----------------|
A-|-0----------------------------0h3------2---|
E-|---------------------------------------3---|
                                 *
Guitar 2: 

E-|-----------------|
B-|---0h1-3-3s5-5---|
G-|-----------------|
D-|-----------------|
A-|-----------------|
E-|-----------------|

Guitar 1:
           Am              C      G
E-|-------------------------------3---|
B-|-------0h1-----3-1-0-----0h1---3---|
G-|---2-------2-----------------0-----|
D-|-----2-------2---------------------|
A-|-0-------------------0h3-------2---|
E-|-------------------------------3---|
    *

Guitar 2: 

E-|-------------------|
B-|---1p0-0-1s3-1-0---|
G-|-------------------|
D-|-------------------|
A-|-------------------|
E-|-------------------|

Verse: 
Repeat.

       Am            C          G       
E-|-----0-----|-------------|---3---|
B-|---1---1---|---------1---|---3---|
G-|---2-------|-------------|-------|
D-|---2-------|---------2---|-------|
A-|-----------|---0-2-3-3---|---2---|
E-|-----------|-------------|---3---|

Pre-Chorus:
Repeat.
[ Tab from: http://www.guitartabs.cc/tabs/0-9/3_doors_down/when_i_m_gone_tab.html ]
                 Am              
E-|----------------------------------|
B-|-------0h1----3---------0h1---0---|
G-|---2-------2--------2-------2-----|
D-|-----2----------------2-----------|
A-|-0----------------0---------------|
E-|----------------------------------|
                                
Chorus:
Repeat.
                    
E-|----------------------------------------------------|
B-|----------------------------------------------------|
G-|----------------------------------------------------|
D-|---2-2---2-2---------------7-7----------------------|
A-|---0-0---0-0---0-2h3h2p0---5-5----5-5---0-2h3h2p0---|
E-|----------------------------------3-3---------------|
                              
Post-Chorus Riff:
                     
E-|-----------------9---|----------------------------|
B-|-----------------9---|----------------------------| 
G-|--------------5v-9---|--------------5v------------|
D-|---7v-X-5h7-X----9---|---7v-X-7h5-X----7h5-X-5v---|
A-|---------------------|----------------------------|
E-|---------------------|----------------------------|

Solo:
This is deffinitally not 100% correct, especially the last
part. Use a wah effect.
                     
E-|-----------------------------------------------------------|
B-|-----------------------------------------------------------| 
G-|-----------------------------------------------------------|
D-|---s7v---7-7-5-7v---7-5---5--------------------------------|
A-|------------------------7---7-5----------------------------|
E-|--------------------------------8-5-5v-5-8-5-5v-5-8h5-5v---|

E-|---------------------------------------5b5b5---------------------------|
B-|---------------------------------------5b5b5-s9bbbbb-12bbbbb-15bbbbb---| 
G-|------------5v-----5v---5b----5b----7b-------s9bbbbb-12bbbbb-15bbbbb---|
D-|---s7-7-7-7----5-7---------7v----7v------------------------------------|
A-|-----------------------------------------------------------------------|
E-|-----------------------------------------------------------------------|
Comments