3 Doors Down - When I M Gone Solo Chords & Tabs

 

When I M Gone Solo Chords & Tabs

3 Doors Down Chords & Tabs

Version: 1 Type: Tab 0 ratings
1 star 2 stars 3 stars 4 stars 5 stars
comments

When I M Gone Solo Tab

I am pretty much 100% sure this is right..Except for maybe a few 
notes left out.
 
 Solo:
E:-----------------------------------------------------------------|
B:-----------------------------------------------------------------|
G:--------------------5--------------------------------------------|
D:--\7~~-7/5\7~~777-7---7-5----------------------------------------|
A:--------------------------7-5h7-5~~-5-5h7-5~~--------------------|
E:----------------------------------------------5~~-8~~5-5-5h8-5~~-|
[ Tab from: http://www.guitartabs.cc/tabs/0-9/3_doors_down/when_i_m_gone_solo_tab.html ]
E:-----------------------------------------------------------------|
B:-----------------------------------------------------------------|
G:-----5b~~--------5b~~---------5b~~---------------------7b9r7~-9--|
D:--7~~-----7~7-7~-----7~-7-7~~------9b~~~-7~~-9b~~~-7~~~----------|
A:-----------------------------------------------------------------|
E:-----------------------------------------------------------------|

    Hit repeatedly..Listen to song for exactness
E:-|--------------------|------------------------------------------|
B:-|--------------------|-21b-fade---------------------------------|
G:--9b--12b-14b-15b-17b-|------------------------------------------|
D:-|--------------------|------------------------------------------|
A:-|--------------------|------------------------------------------|
E:-|--------------------|------------------------Cellkiller--------|
                                     teenagedirtbag_006@hotmail.com
                                           plz send feedback
                                          & maybe some requests
Comments