3 Doors Down - Ticket To Heaven Chords & Tabs

 

Ticket To Heaven Chords & Tabs

3 Doors Down Chords & Tabs

Version: 3 Type: Tab 0 ratings
1 star 2 stars 3 stars 4 stars 5 stars
comments

Ticket To Heaven Tab

Band- 3 Doors Down
Song- Ticket To Heaven

-Intro- Part 1

Gtr. 1 (Clean)

e|------0------3--|---------------------------|---------------------|-----------------|
B|-----1------3---|--------3-0---------0------|---------------------|-----------------|
G|----0------2----|----------------------2-0--|-------------------0-|-----------------|
D|---2------0-----|--0/2-2-------0/2-2--------|----2h4-4----2h4-4---|-----------------|
A|--3-------------|---------------------------|--3--------3---------|-----------------|
E|----------------|---------------------------|---------------------|-----------------|

Gtr.2 (Clean)

e|----------------|---------------------------|-----------0----------|-----------------|
B|----------------|---------------------------|-------------0--------|-----------------|
G|----------------|---------------------------|-----------------0----|-----------------|
D|----------------|---------------------------|----------------------|-----------------|
A|----------------|---------------------------|----------------------|-----------------|
E|----------------|---------------------------|----------------------|-----------------|

-Intro- Part 2

Gtr.1 (Clean)
e|----------------------0-0---------0-----|----------0-------------|
B|--------3-0---------3-----3-0-0h3---0-0-|--------3---0-0---------|
G|----------------------------------------|------------------------|
D|--0/2-2-------0/2-2---------------------|------------------------|
A|----------------------------------------|------------------------|
E|----------------------------------------|------------------------|

Gtr.2 (Clean)

e|----------------------0-0---------0-----|-----------0------------|
B|--------------------3-----3-0-0h3---0-0-|---------3---0-0--------|
G|----------------------------------------|------------------------|
D|----------------------------------------|------------------------|
A|----------------------------------------|------------------------|
E|----------------------------------------|------------------------|

-Verse-

Gtr.1 (Clean)

e|---------------------------|---------------------|-----------------|
B|--------3-0---------0------|---------------------|-----------------|
G|----------------------2-0--|-------------------0-|-----------------|
D|--0/2-2-------0/2-2--------|----2h4-4----2h4-4---|-----------------|
A|---------------------------|--3--------3---------|-----------------|
E|---------------------------|---------------------|-----------------|

Gtr.2 (Clean)
e|---------------------------|---------------------|-----------------|
B|---------------------------|-----------0---------|-----------------|
G|---------------------------|---------------------|-----------------|
D|---------------------------|---------------------|-----------------|
A|---------------------------|---------------------|-----------------|
E|---------------------------|---------------------|-----------------|

Gtr.1 (Clean)
e|----------------------0-0-----|------------------------|
B|--------3-0---------3-----3-0-|------------------------|
G|------------------------------|------------------0-----|
D|--0/2-2-------0/2-2-----------|----2h4-4---2h4-4-------|
A|------------------------------|--3-------3-------------|
E|------------------------------|------------------------|

Gtr.2 (Clean)

e|------------------------------|------------------------|
B|------------------------------|-----------0------------|
G|------------------------------|------------------------|
D|------------------------------|------------------------|
A|------------------------------|------------------------|
E|------------------------------|------------------------|

-Interlude-

Gtr.1 (Clean)
[ Tab from: http://www.guitartabs.cc/tabs/0-9/3_doors_down/ticket_to_heaven_tab_ver_3.html ]
e|-----0-----------|-----0-------------|--------------------|-----0------------|----3-----------|
B|----3------------|----1--------------|-3-0---0---0-3--0---|----1-------------|---3------------|
G|---2-------------|---0---------------|-----0---0--------0-|---0--------------|--2-------------|
D|--0--------------|--2----------------|--------------------|--2---------------|-0--------------|
A|-----------------|-3-----------------|--------------------|-3----------------|----------------|
E|-----------------|-------------------|--------------------|------------------|----------------|

Gtr.2 (Clean)

e|-----0-----------|-----0-------------|------3-------------|-----0------------|----3-----------|
B|----3------------|----1--------------|-----3--------------|----1-------------|---3------------|
G|---2-------------|---0---------------|----0---------------|---0--------------|--2-------------|
D|--0--------------|--2----------------|---0----------------|--2---------------|-0--------------|
A|-----------------|-3-----------------|--2-----------------|-3----------------|----------------|
E|-----------------|-------------------|-3------------------|------------------|----------------|

-Chorus-

Both Gtrs. (Distortion)
                                     * *
e|-------------|----------------|-------------|-------------------|
B|-------------|----------------|-------------|-------------------|
G|-------------|-------------2--|--5--5-5--5--|--5--4-5--7-7-(7)--|
D|--2-------2--|--5---4--5---2--|--5--5-5--5--|--5--4-5--7-7-(7)--|
A|--2-------2--|--5---4--5---0--|--3--3-3--3--|--3--2-3--5-5-(5)--|
E|--0-------0--|--3---2--3------|-------------|-------------------|

       * *                            * *
e|-------------|----------------|-------------|-------------------|
B|-------------|----------------|-------------|-------------------|
G|-------------|-------------2--|--5--5-5--5--|--5--4-------------|
D|--2--2-2--2--|--5---4--5---2--|--5--5-5--5--|--5--4--5--4---(2)-|
A|--2--2-2--2--|--5---4--5---0--|--3--3-3--3--|--3--2--5--4---(2)-|
E|--0--0-0--0--|--3---2--3------|-------------|--------3--2---(0)-|


-Solo-

Gtr.1 (Distortion, wah) 

e|------------------------------------------------------------------------------------------------------------------------|
B|------------------------------------------------------------------------------------------------------------------------|
G|------------------------------------------------------------------------------------------------------------------------|
D|-11b-----------------------------------------------------14b-12p11-12-12-12\11--12-12-12\11-11/12-11-9---9/11-11b-9-9-9-|
A|-----14-12b-9/12-12///-12/14-14-14-14-14/16-16-16-16/17-----------------------------------------------------------------|
E|------------------------------------------------------------------------------------------------------------------------|

Gtr.2 (Distortion)

e|------------------------------------------------------------------------------------------------------------------------|
B|------------------------------------------------------------------------------------------------------------------------|
G|-------------7----5-----------------------------7---------------------------------7----5--------5-5-5-5--5-5-5-5--------|
D|-2-----------7----5-----------------------------7----2----------------------------7----5--------5-5-5-5--5-5-5-5--------|
A|-2-----------5----3-----------------------------5----2----------------------------5----3--------3-3-3-3--3-3-3-3--------|
E|-0---------------------------------------------------0------------------------------------------------------------------|

-Outro-

Gtr.1 (Distortion)

e|--------------------------------------------------------|
B|--------------------------------------------------------|
G|-------------7----5-----------------------------7-------|
D|-2-----------7----5-----------------------------7----2--|
A|-2-----------5----3-----------------------------5----2--|
E|-0---------------------------------------------------0--|

Song order:
Intro 
Verse
Interlude 
Chorus
Intro Part 1
Verse
Interlude
Chorus
Solo
Chorus 2x
Outro.

Tab key:
b  - bend
*  - palm muting 
h  - hammer on
p  - pull of 
/  - slide up
\  - slide down
// - repeating
Comments